Muse - A Crying Shame Chords & Tabs

 

A Crying Shame Chords & Tabs

Muse Chords & Tabs

Version: 1 Type: Tab 0 ratings
1 star 2 stars 3 stars 4 stars 5 stars
comments

A Crying Shame Tab

   
if you have any probs e-mail me in_your_world@hotmail.co.uk
----------------------------------------------------------------------------
Song Title: A Crying Shame (2005)
Band Name: Muse
Album: (Unrelesed Album 2005)

By, Sam Linnett

This song hasn\'t been relesed yet but i managed to find a live
version of it that was played at earls court on the 20-12-04(wooo i saw them on the 19th!!!!!!!!!!!:D:D:D)
Its my attempt at the intro to the song. I would tab more of
it but the version isn\'t too clear so i can\'t do it.

Standard Tuning (E A D G B E)

(Intro)

  N.C
[ Tab from: http://www.guitartabs.cc/tabs/m/muse/a_crying_shame_tab.html ]
-----------------------------------------------------------------------------------------------------|
-----------------------------------------------------------------------------------------------------|
-----------------------------------------------------------------------------------------------------|
-------------------------------------------------------0-0-7-0-12-12-10-9----------------------------|
0-0-0--14-14-14--0-0-0--15-0-6-7-------------------------------------------0-0-12-0-15-0-6-7---------|
---------------------------------0-0-12-0--15-15-17-19-----------------------------------------------|


-----------------------------------------------------------------------------------------------------|
-----------------------------------------------------------------------------------------------------|
-----------------------------------------------------------------------------------------------------|
-----------------------------------------0-0-7-0-12-12-10-9------------------------------------------|
0-0-12-0-15-0-6-7------------------------------------------------------------------------------------|
------------------0-0-12-0--15-15-17-19--------------------------------------------------------------|
Comments