Muscaria - Vamos Mi Raza Chords & Tabs

 

Vamos Mi Raza Chords & Tabs

Muscaria Chords & Tabs

Version: 2 Type: Bass Tab 0 ratings
1 star 2 stars 3 stars 4 stars 5 stars
comments

Vamos Mi Raza Bass Tab

Author/Artist: Muscaria
Title: Vamos mi Raza
Album: Combatiendo Apatía
Transcribed by: Patricio Moreno
Email: pachuko@ecuarock.com


G-|----------------------------|-
D-|----------------------------|-
A-|----------------------------|-
E-|----------------------------|-
  solo guitarra    guitar only                                                            

G-|------------------------------------|-------------------------------------|-
D-|------------------------------------|-------------------------------------|-
A-|------------------------------------|-------------------------------------|-
E-|-2-2-2-2-2----0--3--0--2-2-2-2-2----|--2-2-2-2-2----0--3--0--6-5--3-03/6\-|-
    s s s s s    s  s  s  s s s s s       s s s s s    s  s  s  s s  s ss s
after first dj disc slide           x3                                   
                                                 
G-|-------------------------|----------------------|--------------------------|-
D-|-------------------------|----------------------|--------------------------|-
A-|-------------------------|----------------------|--------------------------|-
E-|-2-2-2-2-2--0-3-0-2-06\3-|-2-2-2-2-2--0-3-0-2-3-|-2-2-2-2-2--0-3-0-2-3-6/3-|-
    s s s s s  s s s s  ss s   s s s s s  s s s s s   s s s s s  s s s s s s s

G-|---------------|-
D-|---------------|-
A-|---------------|-
E-|-6--5--3-02/5\-|-
    s  s  s ss s                                                                  

G-|---------------------------|----------------------|--------------------------|-
D-|---------------------------|----------------------|--------------------------|-
A-|---------------------------|----------------------|--------------------------|-
E-|-2-2-2-2-2--0-3-0-2-3-06\3-|-2-2-2-2-2--0-3-0-2-3-|-2-2-2-2-2--0-3-0-2-3-6/3-|-
    s s s s s  s s s s s ss s   s s s s s  s s s s s   s s s s s  s s s s s s s 
									    break		                                                     
G-|---------|---------|-
D-|---------|---------|-
A-|---------|---------|-
E-|-3--6--5-|-3--6--5-|-
      x4        x8
           "Reflexionando...

G-|------------------------------------|-
D-|------------------------------------|-
A-|------------------------------------|-
E-|-2-2-2-2-2----0--3--0--2-2-2-2-2----|-
    s s s s s    s  s  s  s s s s s   
 "Vamos mi Raza...                     x4

G-|---------|-------------|---------|-
D-|---------|---------3-6-|---------|-
A-|---------|-----3-6-----|---------|-
E-|-3--6--5-|-3-6---------|-3--6--5-|-
     x4                       x8

G-|----------------------------------|-
D-|----------------------------------|-
A-|----------------------------------|-
E-|-2-2-2-2-2----0--3--0--2-2-2-2-2--|-
    s s s s s    s  s  s  s s s s s 
 "Vamos mi Raza...                     x3
[ Tab from: http://www.guitartabs.cc/tabs/m/muscaria/vamos_mi_raza_btab_ver_2.html ]
G-|------------------------------------|-
D-|------------------------------------|-
A-|------------------------------------|-
E-|-2-2-2-2-2----0--3--0--6-5-3-2-2/6\-|-
    s s s s s    s  s  s  s s s s s s
"Vamos a reaccionar....

G-|---------------------------|----------------------|--------------------------|-
D-|---------------------------|----------------------|--------------------------|-
A-|---------------------------|----------------------|--------------------------|-
E-|-2-2-2-2----0-3-0-2-3-06\3-|-2-2-2-2-2--0-3-0-2-3-|-2-2-2-2-2--0-3-0-2-3-6/3-|-
    s s s s s  s s s s s ss s   s s s s s  s s s s s   s s s s s  s s s s s s s

G-|---------------|-
D-|---------------|-
A-|---------------|-
E-|-6--5--3-02/5\-|-
    s  s  s ss s

G-|---------------------------|----------------------|--------------------------|-
D-|---------------------------|----------------------|--------------------------|-
A-|---------------------------|----------------------|--------------------------|-
E-|-2-2-2-2-2--0-3-0-2-3-05\3-|-2-2-2-2-2--0-3-0-2-3-|-2-2-2-2-2--0-3-0-2-3-5/3-|-
    s s s s s  s s s s s ss s   s s s s s  s s s s s   s s s s s  s s s s s s s 

G-|---------------|-
D-|---------------|-
A-|---------------|-
E-|-6--5--3-02/5\-|-
    s  s  s ss s 
           x3

G-|----------------------------|-
D-|----------------------------|-
A-|----------------------------|-
E-|----------------------------|-
  guitarra con bateria
    

G-|-----------------|-
D-|-----------------|-
A-|-----------------|-
E-|-----3-3-3-------|-
	x8

G-|--------------|-
D-|--------------|-
A-|--------------|-
E-|-2-2-2-2-2-2/-|-
	con vitela x16           

G-|----------------------------------|-
G-|----------------------------------|-
A-|-------------3--------------------|-
E-|-2--x-x-6--5---x-x-x-x-3-5-3-5-2--|-
    s  s s s  s s s s s s s s s s s  x8 break

G-|-----------------|-----------------|-------------------------|-
D-|-----------------|-----------------|-------------------------|-
A-|-----------------|-----------------|-------------------------|-
E-|-2-2-2-2-2-2/3-x-|-2-2-2-2-2-2-2-2-|-2-2-2-0-2-x-3-2-x-3-2-x-|-
    s s s s s s s     s s s s s s s s   s s s s s s s s s s s s
	X2

G-|---------------------------------------|-
D-|---------------------------------------|-
A-|---------------------------------------|-
E-|-2-2-2-2-2----0--3--0--2-2-2-2-2---xxx-|-
    s s s s s    s  s  s  s s s s s   sss    
          x4

G-|----------------------------------------------------------------------|-
D-|----------------------------------------------------------------------|-
A-|----------------------------------------------------------------------|-
E-|-2-2-2----0--3--0--2-2-2--2----0--3--0-2-2-2-2-2----0--3--0-2-2-2-2-2-|-
    s s s    s  s  s  s s s  s    s  s  s s s s s s    s  s  s s s s s s
 ENDING                                                                     
                                   
comentarios to pachuko@ecuarock.com
nota: en esta canción hay dos bajos, esta tab es solo de uno.
Comments