Murray Pete - So Beautiful Chords & Tabs

 

So Beautiful Chords & Tabs

Murray Pete Chords & Tabs

Version: 3 Type: Tab 0 ratings
1 star 2 stars 3 stars 4 stars 5 stars
comments

So Beautiful Tab

PETE MURRAY 
FEELER 
SO BEAUTIFUL
BY ALEKS

Intro and Verse
E|----0--------0-------------0--------0----------0-----| 
B|----0--------3-------------3--------0----------0-----| 
G|----0--------0-------------0--------2----------0-----| 
D|----2--------2-------------2--------2----------2-----| 
A|----2--------0-------2-3---3------0-0----------2-----| 
E|----0--------0----------------------------3--2-0-----| 

Found myself just the other day, 
In the backyard of a friends place thinking
About you 
Thinking of the crowd you're in 
What you're up to where you've been
Just thinking 
You know the clothes that you wear 
And the colour in your hair 
Shouldn't change you now you 
Tell me why is it so 
You're bigger than mighty joe 
at least you think so 


Chorus. 

E|----0--------0----0-----0---0---2------0----------------| 
B|----0--------0h1--1-----0h1-0---3------3-----3----------| 
G|----0--------2----2-----2---2---2------0-----0----------|. 
D|----2--------2----2-----2---2---0------2-----4----------|. 
A|----2--------0----0-----0---0---0------3-----5----------| 
E|----0--------0----0-----0---0---------------------------| 

[ Tab from: http://www.guitartabs.cc/tabs/m/murray_pete/so_beautiful_tab_ver_3.html ]
got my fingers burnt 
now when i think of touching your hair
 you have changed so much that I don't know 
if I can call you and tell you I care 
and I would love to bring you down
plant your feet back on the ground 




Post Chorus 

e|--0-----------------------|
B|--0--------0h1--1---------| 
G|--0--------2----2---------| 
D|--2--------2----2---------| 
A|--2--------0----0---------| 
E|--0-----------------------| 



Additional Lyrics: 

threw a smoke down on the ground
 turned my head and I heard the sound
that reminded me, of the days so young and sweet 
always so much fun to me
at least I thought so 
and now you think you're so *** fine 
you can rule the world, no not mine 
I don't think so 

got my fingers burnt 
now when i think of touching your hair
 you have changed so much that I don't know 
if I can call you and tell you I care 

you know the scene that you're in 
and the people that you've been with 
just get to me
but you think I'm not as cool
as you are so beautiful 
who you fooling? 
well I'm here to tell you babe
the game you're in in just a game 
so *** pretentious 

got my fingers burnt
now when i think of touching your hair 
you have changed so much that I don't know 
if I can call you and tell you I care
and I would love to bring you down
plant your feet back on the ground 

you think you're so beautiful
so beautiful 

Comments