Murray Pete - So Beautiful Chords & Tabs

 

So Beautiful Chords & Tabs

Murray Pete Chords & Tabs

Version: 2 Type: Tab 0 ratings
1 star 2 stars 3 stars 4 stars 5 stars
comments

So Beautiful Tab

So Beautiful
By Pete Murray

Tabbed by Sog Man
sog_man@hotmail.com

I found a tab that was pretty close, so I made a few changes and reposted it. It now sounds spot on to me.

Standard Tuning, Capo on 3rd fret.

You'll have to listen to the song to get the timing for the picking between the chords, and noticed there are a couple of pauses.


Riffs:

Intro.

e|---0---0-------0-------0-------0---|
B|---0---3-------3-------0-------0---|
G|---0---0-------0-------2-------0---|
D|---2---2-------2-------2-------2---|
A|---2---0---2-3-3---2-0-0-------2---|
E|---0-----------------------3-2-0---|


Verse.
[ Tab from: http://www.guitartabs.cc/tabs/m/murray_pete/so_beautiful_tab_ver_2.html ]
e|---0-------0-------0-------0-------0---|
B|---0-------3-------3-------0-------0---|
G|---0-------0-------0-------2-------0---|
D|---2-------2-------2-------2-------2---|
A|---2-------0---2-3-3---2-0-0-------2---|
E|---0---0-3---------------------3-2-0---|


Chorus.

e|---0---0-----0-----0---2---3---0---|
B|---0---0h1---1p0---0---3---3---3---|
G|---0---2-----2-----2---2---0---2---|
D|---2---2-----2-----2---0---0---0---|
A|---2---0-----0-----0---0---3---0---|
E|---0---0-----0-----0---------------|


Pre Verse.

e|---0---0-----|
B|---0---0h1---|
G|---0---2-----|
D|---2---2-----|
A|---2---0-----|
E|---0---0-----|


Structure:

Intro     x1

Verse     x4

Chorus    x3

Pre Verse x1
Verse     x3
Chorus    x4


Verse     x3
Chorus    x4
Comments