Murderdolls - White Wedding Chords & Tabs

 

White Wedding Chords & Tabs

Murderdolls Chords & Tabs

Version: 8 Type: Tab 0 ratings
1 star 2 stars 3 stars 4 stars 5 stars
comments

White Wedding Tab

Band: Murderdolls
Song: White Wedding
Tabbed By: Lee Westwood

Hey let me know what you think of this by emailing me webmaster@murderdolls1.net

Intro:
e|---------------------------------|
B|---------------------------------|
G|---------------------------------|
D|--4b-4---3b--0---4b-4---3b---0---|
A|--2b-2---0---2b--2b-2---0----2b--|
E|---------------------------------|
 keep playing, then

 Intro lead:
e|-------------------------------------------------------------------|
B|------------------------------------------------------13~~~12~~~---|
G|--14-10-7---7-10-14-10-12~~~10~~~14-10-7---7-10-14-10--------------|
D|----------7------------------------------7-------------------------|
A|-------------------------------------------------------------------|
E|-------------------------------------------------------------------|
then play intro a few more times
[ Tab from: http://www.guitartabs.cc/tabs/m/murderdolls/white_wedding_tab_ver_8.html ]
Then Play this though the rest of the song
e|---------------------------------------------------|
B|---------------------------------------------------|
G|---------------------------------------------------|
D|--3-3-3-3-3-3-0-0-0-0-0-0-4-4-4-4-4-4-4-4-4-4-4-4--|
A|--0-0-0-0-0-0-2-2-2-2-2-2-4-4-4-4-4-4-4-4-4-4-4-4--|
E|--0-0-0-0-0-0-0-0-0-0-0-0-2-2-2-2-2-2-2-2-2-2-2-2--|
 
e|---------------------------------------------------|
B|---------------------------------------------------|
G|---------------------------------------------------|
D|--3-3-3-3-3-3-0-0-0-0-0-0-4-4-4-4-4-4-4-4-4-4-4-4--|
A|--0-0-0-0-0-0-2-2-2-2-2-2-4-4-4-4-4-4-4-4-4-4-4-4--|
E|--0-0-0-0-0-0-0-0-0-0-0-0-2-2-2-2-2-2-2-2-2-2-2-2--|


 Solo:
e|---------------------------------------------------------------|
B|------------------------------------------------------13~~~12~~|
G|--14-10-7---7-10-14-10-12~~~10~~~14-10-7---7-10-14-10----------|
D|----------7------------------------------7---------------------|
A|---------------------------------------------------------------|
E|---------------------------------------------------------------|

e|--------------------------------------------------------------------------|
B|-----------------------------------------------------------------13~~~12~~|
G|--14-10-7---7-10-14-10-14-10-7---7-10-14-10-14-10-7---7-10-14-10----------|
D|----------7--------------------7--------------------7---------------------|
A|--------------------------------------------------------------------------|
E|--------------------------------------------------------------------------|


 Closing Riff:
e|---------------------------------------------------------------|
B|---------------------------------------------------------------|
G|---------------------------------------------------------------|
D|--------------4-4-------------4-4-----------4-4-----------4-4--|
A|--------------4-4-------------4-4-----------4-4-----------4-4--|
E|--2-2-2-2-2-2-2-2-2-2-2-2-2-2-2-2-2-2-2-2-2-2-2-2-2-2-2-2-2-2--|
Comments