Murderdolls - White Wedding Chords & Tabs

 

White Wedding Chords & Tabs

Murderdolls Chords & Tabs

Version: 6 Type: Tab 0 ratings
1 star 2 stars 3 stars 4 stars 5 stars
comments

White Wedding Tab

Artist: Murderdolls
Song: White Wedding
Album: Beyond The Valley Of The Murderdolls [Special Edition]

Intro:
|---------------|
|---------------|
|-4---4---4---4-|
|-4---4---4---4-|
|-2---2---2---2-|
|---------------|

|-2-----------2--------------2-----------2-----5----4------|
|---3-------3---3--5----3------3-------3---3-------------0-|
|-----4---4----------------------4---4---------------------|
|-------4--------------------------4-----------------------|
|----------------------------------------------------------|
|----------------------------------------------------------|

Verse:
|-----------------------------------------------|
|-----------------------------------------------|
|4-4-4-4-4-4-4-4-4-4-4-4-4-4-4-4-2-2-2-2-2-2-2-2|
|4-4-4-4-4-4-4-4-4-4-4-4-4-4-4-4-2-2-2-2-2-2-2-2|
|2-2-2-2-2-2-2-2-2-2-2-2-2-2-2-2-0-0-0-0-0-0-0-0|
|-----------------------------------------------|
|con't:
|----------------|
|----------------|
|----------------|
|2-2-2-2-2-2-2-2-|
|2-2-2-2-2-2-2-2-|
|0-0-0-0-0-0-0-0-|
PM--------------]
[ Tab from: http://www.guitartabs.cc/tabs/m/murderdolls/white_wedding_tab_ver_6.html ]
Chorus:
|---------------------------------------|
|---------------------------------------|
|-2-----4-4-4-4-4-4-4-4-4-4-4-4-4-4-4-4-|
|-2--2--4-4-4-4-4-4-4-4-4-4-4-4-4-4-4-4-|
|-0--2--2-2-2-2-2-2-2-2-2-2-2-2-2-2-2-2-|
|----0----------------------------------|
|con't:
|---------------------------------------|
|---------------------------------------|
|-2--2--4-4-4-4-4-4-4-4-4-4-4-4-4-4-4-4-|
|-2--0--4-4-4-4-4-4-4-4-4-4-4-4-4-4-4-4-|
|-0-----2-2-2-2-2-2-2-2-2-2-2-2-2-2-2-2-|
|---------------------------------------|
|con't:
|---------------------------------------|
|---------------------------------------|
|-2-----4-4-4-4-4-4-4-4-4-4-4-4-4-4-4-4-|
|-2--2--4-4-4-4-4-4-4-4-4-4-4-4-4-4-4-4-|
|-0--2--2-2-2-2-2-2-2-2-2-2-2-2-2-2-2-2-|
|----0----------------------------------|

Solo:
|-2-----------2--------------2-----------2-----5----4------|
|---3-------3---3--5----3------3-------3---3-------------0-|
|-----4---4----------------------4---4---------------------|
|-------4--------------------------4-----------------------|
|----------------------------------------------------------|
|----------------------------------------------------------|

|Con't:                     Then:
|-2-----------2---|        |-2-----------2-----5----4-|
|---3-------3---3-|        |---3-------3---3----------|
|-----4---4-------|X3      |-----4---4----------------|
|-------4---------|        |-------4------------------|
|-----------------|        |--------------------------|
|-----------------|        |--------------------------|

Bridge:
Play 1st part of the chorus + intro.

Outro:
|--------------------------------------|
|--------------------------------------|
|-4-4-4-4-4-4-4-4-4-4-4-4-4-4-4-4-4--4-|
|-4-4-4-4-4-4-4-4-4-4-4-4-4-4-4-4-4--4-|
|-2-2-2-2-2-2-2-2-2-2-2-2-2-2-2-2-2--2-|
|--------------------------------------|
PM-------------------------------
Comments