Murderdolls - White Wedding Chords & Tabs

 

White Wedding Chords & Tabs

Murderdolls Chords & Tabs

Version: 1 Type: Bass Tab 0 ratings
1 star 2 stars 3 stars 4 stars 5 stars
comments

White Wedding Bass Tab

#----------------------------------PLEASE NOTE---------------------------------#
#This file is the author's own work and represents their interpretation of the-#
#song. You may only use this file for private study, scholarship, or research.-#
#------------------------------------------------------------------------------#

Murderdolls - White Wedding
Submitted By: DAR
EMail: dar_netmaster@hotmail.com

[ Tab from: http://www.guitartabs.cc/tabs/m/murderdolls/white_wedding_btab.html ]
Intro:
|--------------------------
|--------0--2--4--4--2--0--
|--2--2--------------------
|--------------------------
                                                      
|--------------------------|--------------------------
|--------0--2--4--4--2--0--|--------0--2--4--4--2--0--
|--2--2--------------------|--2--2--------------------
|--------------------------|--------------------------
                                                      
|--------------------------|--------------------------
|--------0--2--4--4--2--0--|--------0--2--4--4--2--0--
|--2--2--------------------|--2--2--------------------
|--------------------------|--------------------------
                                                    
|--------------------------|--------------------------
|--------0--2--4--4--2--0--|--2--2--2--2--2--2--2--2--
|--2--2--------------------|--------------------------
|--------------------------|-------------------------
                                                      
|--------------------------|--------------------------
|--0--0--0--0--0--0--0--0--|--------0--2--4--4--2--0--
|--------------------------|--2--2--------------------
|--------------------------|--------------------------
                                                      
|--------------------------|--------------------------|
|--------0--2--4--4--2--0--|--0--0--0--0--0--0--0--0--|
|--2--2--------------------|--------------------------|
|--------------------------|--------------------------|


Main Riff:
--------------------------|--------------------------|
--------------------------|--------------------------|
--2--2--2--2--2--2--2--2--|--0--0--0--0--0--0--0--0--|
--------------------------|--------------------------|
Comments