Murderdolls - Welcome To The Strange Chords & Tabs

 

Welcome To The Strange Chords & Tabs

Murderdolls Chords & Tabs

Version: 3 Type: Tab 0 ratings
1 star 2 stars 3 stars 4 stars 5 stars
comments

Welcome To The Strange Tab

Tabbed By SemuS.
Song: Welcome to the strage
Artist: the Murderdolls.
tuning's normal.

~Intro~: LoAdS of distortion :)
[ Tab from: http://www.guitartabs.cc/tabs/m/murderdolls/welcome_to_the_strange_tab_ver_3.html ]
 |--------------------------------------------------------|
 |--------------------------------------------------------|
 |--------------------------------------------------------|
 |--------------------------------------------------------|
 |--------------------------------------------------------| 
 |0-0-0-0-0-0-0-0-2-2-5-5-4-4-4-4-4-4-4-4-4-4-4-4-4-4-4-4-|
                                                              
~Verse~: (numebrs of time u hit each this frets Might not be correct, its what
i think it's correct, but i may be wrong at that..)
                                                      
 |-------------------------------------------------|  
 |-------------------------------------------------|  
 |-------------------------------------------------|   
 |-2-2-2-2-2-2-2-2-2-2-2-2-4x-7x-6-6-6-6-6-6-6-6-6-|   
 |-2-2-2-2-2-2-2-2-2-2-2-2-4x-7x-6-6-6-6-6-6-6-6-6-|  
 |-0-0-0-0-0-0-0-0-0-0-0-0-2x-5x-4-4-4-4-4-4-4-4-4-|  

~1st Part of Chorus~ (X2

 |-------------------------------------------------|  
 |-------------------------------------------------|  
 |-2-2-2-2---------------2-2-----2-2-----2-2-------|   
 |-2-2-2-2--4-4-4-4--2-2-2-2-2-2-2-2-2-2-2-2-------|   
 |-0-0-0-0--4-4-4-4--2-2-0-0-2-2-0-0-2-2-0-0-------|  
 |----------2-2-2-2--0-0-----0-0-----0-0-----------|  

~2nd Part of Chorus~         | | |"welcome to   
                        V V V the strange"
 |---------------------------------------------------|  
 |---------------------------------------------------|  
 |-2-2-2-2-----------------------2-2-----2-2-----2-2-|   
 |-2-2-2-2-6-4-4-4-4-4-4-----2-2-2-2-2-2-2-2-2-2-2-2-|   
 |-0-0-0-0-6-4-4-4-4-4-4-----2-2-0-0-2-2-0-0-2-2-0-0-|  
 |---------4-2-2-2-2-2-2-----0-0-----0-0-----0-0-----|  

then ~Verse~ again, or no, b-cuz there's a part of only bass guitar..
well, thats about it.

for tellin me im wrong, stupid, lousy, cant write, cant talk, or any other of those
nice stuff, e-mail me at Yn_on@hotmail.com (Also msn msnger address)
Comments