Murderdolls - Twist My Sister Chords & Tabs

 

Twist My Sister Chords & Tabs

Murderdolls Chords & Tabs

Version: 2 Type: Tab 0 ratings
1 star 2 stars 3 stars 4 stars 5 stars
comments

Twist My Sister Tab

   
: Twist My Sister :
: Murderdolls :
: Beyond the Valley of the Murderdolls :
Tuning: Drop D: (D, A, D, G, B, E)
Tabbed by: MIK MCDADE : MIK_MCDADE@hotmail.com

Note:
* Keep plying til you hear the change

Intro:
E | ------------------------------
B | ------------------------------
G | ------------------------------
D | --5-2-5-2-5-2--2-5-2-5-2------ (x4)
A | --5-2-5-2-5-2--2-5-2-5-2------
D | --5-2-5-2-5-2--2-5-2-5-2------

Verse:
E | --------------------------------
B | --------------------------------
G | --------------------------------
D | --5-2-5-2-5-2--2-5-2-5-2--------
A | --5-2-5-2-5-2--2-5-2-5-2--------
D | --5-2-5-2-5-2--2-5-2-5-2--------
[ Tab from: http://www.guitartabs.cc/tabs/m/murderdolls/twist_my_sister_tab_ver_2.html ]
Bridge:
E | --------------------------------------------
B | --------------------------------------------
G | --------------------------------------------
D | --5-2-5-2-5-2-5-2-5-2-5-2-5-2-5-------------
A | --5-2-5-2-5-2-5-2-5-2-5-2-5-2-5-------------
D | --5-2-5-2-5-2-5-2-5-2-5-2-5-2-5-------------

Bridge Cont.....
E | ---------------------------------------------------
B | ---------------------------------------------------
G | -------------------------------------------7*------
D | --10-7-10-7-10-7-10-7-10-7-10-7-10-7-10--7-7*------
A | --10-7-10-7-10-7-10-7-10-7-10-7-10-7-10--7-5*------
D | --10-7-10-7-10-7-10-7-10-7-10-7-10-7-10--7---------

Chorus:
E | --------------------------------------
B | --------------------------------------
G | --------------------------------------
D | --2-2-5-5-2-2-5-5-2-2-5-5-2-2-5------- (x4)
A | --2-2-5-5-2-2-5-5-2-2-5-5-2-2-5-------
D | --2-2-5-5-2-2-5-5-2-2-5-5-2-2-5-------
Comments