Murderdolls - Twist My Sister Chords & Tabs

 

Twist My Sister Chords & Tabs

Murderdolls Chords & Tabs

Version: 1 Type: Tab 1 rating
1 star 2 stars 3 stars 4 stars 5 stars
comments

Twist My Sister Tab

   
Song: Twist My Sister
Artis: Murderdolls
Album: Beyond the Valley of the Murderdolls
Tuning: standard: (E, A, D, G, B, E)
Tabbed by: nick rozka
Comments: GREAT SONG!!!

Intro

E|------------------------------
B|------------------------------
G|------------------------------
D|--5-2-5-2-5-2--2-5-2-5-2------ x4
A|--5-2-5-2-5-2--2-5-2-5-2------
E|--3-0-3-0-3-0--0-3-0-3-0------

Verse

E|--------------------------------
B|--------------------------------
G|--------------------------------
D|--5-2-5-2-5-2--2-5-2-5-2--------
A|--5-2-5-2-5-2--2-5-2-5-2--------
E|--3-0-3-0-3-0--0-3-0-3-0--------
        . . . .    . . . . 

Bridge
[ Tab from: http://www.guitartabs.cc/tabs/m/murderdolls/twist_my_sister_tab.html ]
E|--------------------------------------------
B|--------------------------------------------
G|--------------------------------------------
D|--5-2-5-2-5-2-5-2-5-2-5-2-5-2-5-------------
A|--5-2-5-2-5-2-5-2-5-2-5-2-5-2-5-------------
E|--3-0-3-0-3-0-3-0-3-0-3-0-3-0-3-------------

Bridge (cont.) (the last 7 7 5's are played
more than listed. I didnt have enough room
too put them all in.)

E|--------------------------------------------------------------
B|--------------------------------------------------------------
G|-------------------------------------------7-7-7-7-7-7-7------
D|--10-7-10-7-10-7-10-7-10-7-10-7-10-7-10--7-7-7-7-7-7-7-7------
A|--10-7-10-7-10-7-10-7-10-7-10-7-10-7-10--7-5-5-5-5-5-5-5------
E|--8--5-8--5-8--5-8--5-8--5-8--5-8--5-8---5--------------------
                                                 . . . . . .

Chorus

E|--------------------------------------
B|--------------------------------------
G|--------------------------------------
D|--2-2-5-5-2-2-5-5-2-2-5-5-2-2-5------- x4
A|--2-2-5-5-2-2-5-5-2-2-5-5-2-2-5-------
E|--0-0-3-3-0-0-3-3-0-0-3-3-0-0-3-------


Comments