Murderdolls - Twist My Sister Chords & Tabs

 

Twist My Sister Chords & Tabs

Murderdolls Chords & Tabs

Version: 1 Type: Bass Tab 0 ratings
1 star 2 stars 3 stars 4 stars 5 stars
comments

Twist My Sister Bass Tab

   
----------------------------------------------------------------------------
			     Murderdolls- Twist my sister
----------------------------------------------------------------------------

Verse
G|----------------------------|
D|----------------------------|
A|----------------------------|
E|3----0-3-0-3-0----0-3-0-3-0-|

Pre Chorus

G|---------------------------------------------------------------|
D|---------------------------------------------------------------|
A|----------------------------------3----0-3-0-3-0-3-0-3-0-3-0-3-|
E|3----0-3-0-3-0-3-0-3-0-3-0-3-----------------------------------|

Break
G|------------------|
D|-------0----------|
A|0-----------------|
E|------------------|
[ Tab from: http://www.guitartabs.cc/tabs/m/murderdolls/twist_my_sister_btab.html ]
Chorus
G|----------------------------------------|
D|----------------------------------------|
A|----------------------------------------|
E|0--0--3-3-0--0--3-3-0--0--3-3-0--0--3-0-|

lyrics

verse

oh mCdonald had a farm
E-I-E-I oh my god
thou shall not take any more shit
And ill split my sister in her motherfucking lip

pre-chourus

Ill grab her by the hair
And swing her in the air

chourus

Twist my twist my sister twist(an so on)

verse

Jimmy crack corn and i dont give a fuck
ill get a butcher knife
And ram it in her gut
Ill do a chicken dance over her dead body
This is going to hurt you more than me

pre-chourus and then chourus

tab order

verse x8
pre-chourus x1
break
chourus x4
verse x2
chourus x8

and thats it.I worked this out in my room.lol not very difficult at all,and i thought id 
lyrics enjoy
Comments