Murderdolls - Slit My Wrists Chords & Tabs

 

Slit My Wrists Chords & Tabs

Murderdolls Chords & Tabs

Version: 1 Type: Bass Tab 0 ratings
1 star 2 stars 3 stars 4 stars 5 stars
comments

Slit My Wrists Bass Tab

   
Murderdolls
Slit my wrists
Bass Tab
By ding ( devilishdude22@hotmail.com )

Verse 
G|-------------------------------|
D|-------------------------------|
A|-------------------------------|
E|-00-3-00-3-00-3-00-3-0000-3333-|

Faster bit in verse

G|---------------------------------|
D|---------------------------------|
A|---------------------------------|
E|-0-0-0-0-0-0-0-0-0-0-0-0-3-3-3-3-|

Chorus:
G|------------------------------------------|
D|------------------------------------------|
A|------------------------------------------|
E|-6-0-0-0-0-3-3-5-3-5--6-0-0-0-0-6-6-5-6-5-|
[ Tab from: http://www.guitartabs.cc/tabs/m/murderdolls/slit_my_wrists_btab.html ]
G|-------------------------------|
D|-------------------------------|
A|-------------------------------|
E|-6-0-0-0-0-3-3-5-3-5-6666-5555-|
 
Play this bit over solo
G|------------------------------------------|
D|------------------------------------------|
A|------------------------------------------|
E|-6-0-0-0-0-3-3-5-5-5--6-0-0-0-0-6-6-5-5-5-|

Just after solo
G|---------------------------------|
D|---------------------------------|
A|---------------------------------|
E|-0-0-0-0-0-0-0-0-0-0-0-0-3-3-3-3-|
then (during Murder, Murder yes indeed)
G|--------------------------------------|
D|--------------------------------------|
A|--------------------------------------|
E|-0-0-0-0-3-3-5-3-5--0-0-0-0-6-6-5-6-5-|

 
G|-------------------------------|
D|-------------------------------|
A|-------------------------------|
E|-00--00--00--00--0000-3333-----|

Ending:
G|-----------------------------|
D|-----------------------------|
A|-----------------------------|
E|-00-3-00-3-00-3-00-3-0000-3--| let ring

Thats about it. Ive see almost alot of versions like this, coz most people have this
song tabbed correct. Thers not one on here so ive tabbed it for you guys.
Comments