Murderdolls - Slit My Wrist Chords & Tabs

 

Slit My Wrist Chords & Tabs

Murderdolls Chords & Tabs

Version: 4 Type: Tab 0 ratings
1 star 2 stars 3 stars 4 stars 5 stars
comments

Slit My Wrist Tab

   
Murderdolls
Slit My Wrist
Tuning - Standard - E A D G B E

E---------------------------------------------------
B---------------------------------------------------
G---------------------------------------------------  Intro/Verse x2
D---------------------------------------------------
A----*-*---*-*-----*-----*--------------------------
E--0-3-3-0-3-3-0-0-3-0~0-3-0~0~0-0-0-3~3-3-3-3-3-3--


E---------------------------------------------------------
B---------------------------------------------------------
G---------------------------------------------------------  x2
D----------------------------------------5~5-5-5-5-5-5-5--   
A--2-2-2-2-2-2-2-2-2-2-2-2-2~-2~2~-2-2-2-5~5-5-5-5-5-5-5--    
E--0-0-0-0-0-0-0-0-0-0-0-0-0~-0~0~-0-0-0-3~3-3-3-3-3-3-3--


E---------------------------------------------------
B---------------------------------------------------
G---------------------------------------------------  x2
D---------------------------------------------------   
A----*-*---*-*-----*-----*--------------------------
E--0-3-3-0-3-3-0-0-3-0~0-3-0~0~0-0-0-3~3-3-3-3-3-3--

(Pleccy slide)

E---------------------------------------------------------
B---------------------------------------------------------
G---------------------------------------------------------  x2
D----------------------------------------5~5-5-5-5-5-5-5--   
A--2-2-2-2-2-2-2-2-2-2-2-2-2~-2~2~-2-2-2-5~5-5-5-5-5-5-5--    
E--0-0-0-0-0-0-0-0-0-0-0-0-0~-0~0~-0-0-0-3~3-3-3-3-3-3-3--

E-----------------------------------
B-----------------------------------
G----------------------------------- x2
D-----------------------------------
A--8-2~~2~5-5-5-7~8-2~~2~8-8-8-7~~--
E--6-0~~0~3-3-3-5~6-0~~0~6-6-6-5~~--

E---------------------------------------------------
B---------------------------------------------------
G---------------------------------------------------  x4
D---------------------------------------------------
A----*-*---*-*-----*-----*--------------------------
E--0-3-3-0-3-3-0-0-3-0~0-3-0~0~0-0-0-3~3-3-3-3-3-3--
[ Tab from: http://www.guitartabs.cc/tabs/m/murderdolls/slit_my_wrist_tab_ver_4.html ]
E---------------------------------------------------------
B---------------------------------------------------------
G---------------------------------------------------------  x2
D----------------------------------------5~5-5-5-5-5-5-5--   
A--2-2-2-2-2-2-2-2-2-2-2-2-2~-2~2~-2-2-2-5~5-5-5-5-5-5-5--    
E--0-0-0-0-0-0-0-0-0-0-0-0-0~-0~0~-0-0-0-3~3-3-3-3-3-3-3--

E-----------------------------------
B-----------------------------------
G----------------------------------- x6 (solo 4 the last 2)
D-----------------------------------
A--8-2~~2~5-5-5-7~8-2~~2~8-8-8-7~~--
E--6-0~~0~3-3-3-5~6-0~~0~6-6-6-5~~--

(BASS SOLO TYPE THING)

E----------------------------------------------------------------------------
B----------------------------------------------------------------------------
G----------------------------------------------------------------------------x2
D----------------------------------------------------------------------------
A----------------------------------------------------------------------------
E--0-0-0-0-0-0-0-0-3-3-3-5-5-5-5-5-5-5-5--0-0-0-0-0-0-0-0-6-6-6-5-5-5-5-5-5--

E----------------------------------------------------------------------------
B----------------------------------------------------------------------------
G----------------------------------------------------------------------------x4
D----------------------------------------------------------------------------
A--2-2-2-2-2-2-2-2-5-5-5-5-7-7-7-7-7-7-7--2-2-2-2-2-2-2-2-8-8-8-7-7-7-7-7-7--
E--0-0-0-0-0-0-0-0-3-3-3-5-5-5-5-5-5-5-5--0-0-0-0-0-0-0-0-6-6-6-5-5-5-5-5-5--

E----------------------------
B----------------------------
G----------------------------  x2
D---------------------5------
A--2-2-2-2~~-2~~2~~2~~5~~~~--
E--0-0-0-0~~-0~~0~~0~~3~~~~--

E-----------------------------------
B-----------------------------------
G----------------------------------- x4
D-----------------------------------
A--8-2~~2~5-5-5-7~8-2~~2~8-8-8-7~~--
E--6-0~~0~3-3-3-5~6-0~~0~6-6-6-5~~--

E-------------------------------------------------------------
B-------------------------------------------------------------
G-------------------------------------------------------------  x2
D-------------------------------------------------------------   
A----*-*---*-*-----*-----*------------------------------------
E--0-3-3-0-3-3-0-0-3-0~0-3-0~0~0-0-0-3~3-3-3-3-3-3~b~~~~~~~~--
                     (Gradually release this bend ^^^)


Key -

* - Harmonics    b - Bend
~ - Hold/Ring on
Comments