Murderdolls - Slit My Wrist Chords & Tabs

 

Slit My Wrist Chords & Tabs

Murderdolls Chords & Tabs

Version: 2 Type: Tab 0 ratings
1 star 2 stars 3 stars 4 stars 5 stars
comments

Slit My Wrist Tab

   
: Slit My Wrist : Murderdolls :
: Beyond the Valley of the Murderdolls :
Tuning : Drop D: (D, A, D, G, B, E)
Tabbed by : MIK MCDADE : MIK_MCDADE@hotmail.com

-------------------
||Notes:         ||
||* = Harmonic   ||
-------------------

Intro/Verse:

E |------------------------------------------
B | -----------------------------------------
G | -----------------------------------------
D | --2-2-------2-2-------2-2----2-2----2-5-- (x4)
A | --2-2-------2-2-------2-2----2-2----2-5--
D | --2-2-3*-3*-2-2-3*-3*-2-2-3*-2-2-3*-2-5--

Verse (cont.):
[ Tab from: http://www.guitartabs.cc/tabs/m/murderdolls/slit_my_wrist_tab_ver_2.html ]
E | ----------------------------------------
B | ----------------------------------------
G | ----------------------------------------
D | --2-2-2-2-2-2-2-2-2-2-2-2--5-5-5-5------ (x2)
A | --2-2-2-2-2-2-2-2-2-2-2-2--5-5-5-5------
D | --0-0-0-0-0-0-0-0-0-0-0-0--3-3-3-3------

Chorus:

E |--------------------------------------------
B | -------------------------------------------
G | -------------------------------------------
D | --8-2-2-5-5-7--8-2-2-8-8-7--8-2-2-5-5-8-7--
A | --8-2-2-5-5-7--8-2-2-8-8-7--8-2-2-5-5-8-7--
D | --8-2-2-5-5-7--8-2-2-8-8-7--8-2-2-5-5-8-7--

During Solo:

E | ------------------------------
B | ------------------------------
G | ------------------------------
D | --2-5-7--2-8-7--2-5-7--2-8-7--
A | --2-5-7--2-8-7--2-5-7--2-8-7--
D | --2-5-7--2-8-7--2-5-7--2-8-7--

Bridge:

E | ------------------------------
B | ------------------------------
G | ------------------------------
D | --2-2-2-2-5-7--2-2-2-2-8-7---- (x2)
A | --2-2-2-2-5-7--2-2-2-2-8-7----
D | --0-0-0-0-3-5--0-0-0-0-6-5----
Comments