Murderdolls - She Was A Teenage Zombie Chords & Tabs

 

She Was A Teenage Zombie Chords & Tabs

Murderdolls Chords & Tabs

Version: 2 Type: Tab 1 rating
1 star 2 stars 3 stars 4 stars 5 stars
comments

She Was A Teenage Zombie Tab

   
hey kick ass song check it out i think its about right but if not e-mail d_o_a_666@hotmail.com

Tuning: Standard - E, A, D, G, B, E

Intro Riff(s):                   2x                       4x
E|---------------------------------|------------------------|
B|-------15---12--------15---12----|------------------------|
G|--12-------------12--------------|------------------------|
D|---------------------------------|------------------------|
A|---------------------------------|------------------------|
E|---------------------------------|--2-2--3-3--2-2--3-3----|

Then Play This:
 Guitar 1:              4x  Guitar 2:                     4x
 |------------------------| |-------------------------------|
 |------------------------| |-------------------------------|
 |------------------------| |-11-11--12-12--11-11--12-12----|
 |--4-4--5-5--4-4--5-5----| |-------------------------------|
 |--4-4--5-5--4-4--5-5----| |-------------------------------|
 |--2-2--3-3--2-2--3-3----| |-------------------------------|

Verse Riff(s):
 Guitar 1:                                                2x
 |----------------------------------------------------------|
 |----------------------------------------------------------|
 |------------------------------------------9.--5.---5------|
 |--4-4--5-5--4-4--5-5--4-4--5-5--4-4--5-5--9.--5.-----5----|
 |--4-4--5-5--4-4--5-5--4-4--5-5--4-4--5-5--7.--3.----------|
 |--2-2--3-3--2-2--3-3--2-2--3-3--2-2--3-3------------------|
[ Tab from: http://www.guitartabs.cc/tabs/m/murderdolls/she_was_a_teenage_zombie_tab_ver_2.html ]
                        2x
 |------------------------|------------|
 |------------------------|------------|
 |------------------------|------5.----|
 |--4-4--5-5--4-4--5-5----|--2.--5.----|
 |--4-4--5-5--4-4--5-5----|--2.--3.----|
 |--2-2--3-3--2-2--3-3----|--0.--------|

                        2x
 |------------------------|---------------------------------|
 |------------------------|---------------------------------|
 |------------------------|--9.--5.--7~--7-7-7-7-7-7-7-7----|
 |--4-4--5-5--4-4--5-5----|--9.--5.--7~--7-7-7-7-7-7-7-7----|
 |--4-4--5-5--4-4--5-5----|--7.--3.--5~--5-5-5-5-5-5-5-5----|
 |--2-2--3-3--2-2--3-3----|---------------------------------|
P.M.                                     . . . . . . . .

Guitar 2:                       2x
 |--------------------------------|--------------|
 |--------------------------------|--15.---------|
 |--11-11--12-12--11-11--12-12----|-------17.----|
 |--------------------------------|--------------|
 |--------------------------------|--------------|
 |--------------------------------|--------------|

Chorus Riff:
 Guitar 1:                          4x  Guitar 2:        4x
 |------------------------------------| |------------------|
 |------------------------------------| |-------15---12----|
 |------------------------------------| |--12--------------|
 |--5.--3.--2.------------------------| |------------------|
 |--5.--3.--2.--9-9--7-7--------------| |------------------|
 |--3.--1.--0.------------9-9--7-7----| |------------------|

Little Fill Thingy After The 2nd Verse:
|---------------------------------------------|
|---------------------------------------------|
|---------------------------------------------|
|--4-4-5-5-6-6-7-7-8-8-9-9-10-10-11-11-12~----|
|---------------------------------------------|
|---------------------------------------------|
Comments