Murderdolls - People Hate Me Chords & Tabs

 

People Hate Me Chords & Tabs

Murderdolls Chords & Tabs

Version: 4 Type: Tab 0 ratings
1 star 2 stars 3 stars 4 stars 5 stars
comments

People Hate Me Tab

Artist: Murderdolls
Song: People Hate Me

intro/riff 1
e -------------------------------------------------------------------------|
B -------------------------------------------------------------------------|
G -------------------------------------------------------------------------|
D -2-2-3-4-5-2-9-8-2-3-4-5-2-5-4-2---2-2-3-4-5-2-9-8-2-3-4-5-2-13-12-11----|
A -2-2-3-4-5-2-9-8-2-3-4-5-2-5-4-2---2-2-3-4-5-2-9-8-2-3-4-5-2-13-12-11----|
E -0-0-1-2-3-0-7-6-0-1-2-3-0-3-2-1---0-0-1-2-3-0-7-6-0-1-2-3-0-11-10-9-----|

e -------------------------------------------------------------------------|
B -------------------------------------------------------------------------|
G -------------------------------------------------------------------------|
D -2-2-3-4-5-2-9-8-2-3-4-5-2-5-4-3--2-x-5-x-7/8-x-5-7----------------------|
A -2-2-3-4-5-2-9-8-2-3-4-5-2-5-4-3--2-x-5-x-7/8-x-5-7----------------------|
E -0-0-1-2-3-0-7-6-0-1-2-3-0-3-2-1--0-x-3-x-5/6-x-3-5--6-5-3---------------|
                                                       pm...

riff 2
e --------------------------------------------------------------------------|
B --------------------------------------------------------------------------|
G --------------------------------------------------------------------------|
D -2-2-3-4-5-2-9-8-2-3-4-5-2-5-4-2--2-2-3-4-5-2-9-8-2-3-4-5-2-13-12-11------|
A -2-2-3-4-5-2-9-8-2-3-4-5-2-5-4-2--2-2-3-4-5-2-9-8-2-3-4-5-2-13-12-11------|
E -0-0-1-2-3-0-7-6-0-1-2-3-0-3-2-1--0-0-1-2-3-0-7-6-0-1-2-3-0-11-10-9-------|

e -------------------------------------------------------------------------|
B -------------------------------------------------------------------------|
G -------------------------------------------------------------------------|
D -2-2-3-4-5-2-9-8-2-3-4-5-2-5-4-3--2-x-5-x-7/8-x-5-7--------2-------------|
A -2-2-3-4-5-2-9-8-2-3-4-5-2-5-4-3--2-x-5-x-7/8-x-5-7--------2-let it ring-|
E -0-0-1-2-3-0-7-6-0-1-2-3-0-3-2-1--0-x-3-x-5/6-x-3-5-6-5-3--0-------------|
                                                      pm...
verse
e -------------------------------------------------------------------------|
B -------------------------------------------------------------------------|
G -------------------------------------------------------------------------|
D -2-2-3-4-5-2-9-8-2-3-4-5-2-5-4-3---2-------------------------------------|
A -2-2-3-4-5-2-9-8-2-3-4-5-2-5-4-3---2-let it ring-------------------------|
E -0-0-1-2-3-0-7-6-0-1-2-3-0-3-2-1---0-------------------------------------|

e -------------------------------------------------------------------------|
B -------------------------------------------------------------------------|
G -------------------------------------------------------------------------|
D -2-2-3-4-5-2-9-8-2-3-4-5-2-13-12-11--------------------------------------|
A -2-2-3-4-5-2-9-8-2-3-4-5-2-13-12-11--------------------------------------|
E -0-0-1-2-3-0-7-6-0-1-2-3-0-11-10-9---------------------------------------|

fill
e --------------------------------------------------------------------------|
B --------------------------------------------------------------------------|
G --------------------------------------------------------------------------|
D -2-2-3-4-5-2-9-8-2-3-4-5-2-13-12-11---------------------------------------|
A -2-2-3-4-5-2-9-8-2-3-4-5-2-13-12-11---------------------------------------|
E -0-0-1-2-3-0-7-6-0-1-2-3-0-11-10-9----------------------------------------|

riff 3
e -------------------------------------------------------------------------|
B -------------------------------------------------------------------------|
G -------------------------------------------------------------------------|
D -7-7-7-7-7-5---7-7-7-7-7-5---7--5--7--5--7--10--10--2--------------------|
A -7-7-7-7-7-5---7-7-7-7-7-5---7--5--7--5--7--10--10--2--------------------|
E -5-5-5-5-5-3---5-5-5-5-5-3---5--3--5--3--5---8---8--0--------------------|
[ Tab from: http://www.guitartabs.cc/tabs/m/murderdolls/people_hate_me_tab_ver_4.html ]
riff 4
e -------------------------------------------------------------------------|
B -------------------------------------------------------------------------|
G -9-9-11-12---9-9-11-12-----9---------------------------------------------|
D -9-9-11-12---9-9-11-12-----9-6-------------------------------------------|
A -7-7--9-10---7-7--9-10-----7-6-------------------------------------------|
E -----------------------------4-------------------------------------------|

e -------------------------------------------------------------------------------|
B -------------------------------------------------------------------------------|
G -------------------------------------------------------------------------------|
D -9-----8-----7------6---5------------------------------------------------------|
A -9-----8-----7------6---5------------------------------------------------------|
E -7-----6-----5------4---3------------------------------------------------------|

chorus
e -------------------------------------------------------------------------|
B -------------------------------------------------------------------------|
G -------------------------------------------------------------------------|
D -5-5----2-----10----5-5-5-5-5--5-5---2---10--5-5-6-6-7-7-----------------|
A -5-5----2-----10----5-5-5-5-5--5-5---2---10--5-5-6-6-7-7-----------------|
E -0-3----0------8----3-3-3-3-3--0-3---0----8--3-3-4-4-5-5-----------------|

e -------------------------------------------------------------------------|
B -------------------------------------------------------------------------|
G -------------------------------------------------------------------------|
D -5-5---2------10----5-5-5-5-5-5---7-7-7-7-6-6-6-6-5-5-5-5-4-4-3-3--------|
A -5-5---2------10----5-5-5-5-5-5---7-7-7-7-6-6-6-6-5-5-5-5-4-4-3-3--------|
E -0-3---0-------8----3-3-3-3-3-3---5-5-5-5-4-4-4-4-3-3-3-3-2-2-1-1--------|

riff 5
e -------------------------------------------------------------------------|
B -------------------------------------------------------------------------|
G -------------------------------------------------------------------------|
D -2-------------2-5-4---2---5-5-6-6-7-7--2--------------------------------|
A -2-------------2-5-4---2---5-5-6-6-7-7--2--pick slide--------------------|
E -0-------------0-3-2---0---3-3-4-4-5-5--0--------------------------------|
                 pm...

riff 6
e -------------------------------------------------------------------------|
B -------------------------------------------------------------------------|
G -9-9-9--10-10-10--11-11-11--12-12-12--13-13--14-14-----------------------|
D -9-9-9--10-10-10--11-11-11--12-12-12--13-13--14-14-----------------------|
A -7-7-7---8--8--8---9--9--9--10-10-10--11-11--12-12-----------------------|
E -------------------------------------------------------------------------|

rhythm for solo
e -------------------------------------------------------------------------|
B -------------------------------------------------------------------------|
G -------------------------------------------------------------------------|
D -2--5-2-5-7-8---2--5-2-8-7-5---------------------------------------------|
A -2--5-2-5-7-8---2--5-2-8-7-5---------------------------------------------|
E -0--3-0-3-5-6---0--3-0-6-5-3---------------------------------------------|

e -------------------------------------------------------------------------|
B -------------------------------------------------------------------------|
G -7-7-7---6-6-6---5-5-5---4-4-4-4-4-4-------------------------------------|
D -7-7-7---6-6-6---5-5-5---4-4-4-4-4-4-------------------------------------|
A -5-5-5---4-4-4---3-3-3---2-2-2-2-2-2-------------------------------------|
E -------------------------------------------------------------------------|

e -------------------------------------------------------------------------|
B -------------------------------------------------------------------------|
G -------------------------------------------------------------------------|
D -7-7-7--6-6-6--5-5-5--4-4-4--3-3-3-3----2--------------------------------|
A -7-7-7--6-6-6--5-5-5--4-4-4--3-3-3-3----2--------------------------------|
E -5-5-5--4-4-4--3-3-3--2-2-2--1-1-1-1----0--------------------------------|
                                   pm..


Song Structure

intro/riff 1
riff 2
verse
riff 3
fill
riff 4
chorus
riff 2
verse
riff 3
fill
riff 4
chorus
riff 5
riff 6
rhythym solo
verse
riff 3
fill
riff 4
chorus
Comments