Murderdolls - Murder Pie Chords & Tabs

 

Murder Pie Chords & Tabs

Murderdolls Chords & Tabs

Version: 2 Type: Bass Tab

Murder Pie Bass Tab

BASS
MURDERDOLLS
MURDER PIE

TABBED BY BMILNE
EADG

ITS TOO EASY.

G--------------|
D--------------|
A-4------------|
E---0-0-3-2-1--|
[ Tab from: http://www.guitartabs.cc/tabs/m/murderdolls/murder_pie_btab_ver_2.html ]
G----------------------|
D----------------------|
A----------------------|
E-0-0-3-2-1--0-0-3-2-1-|

G-------------------------------------|
D-------------------------------------|
A-------------------------------------|
E-0-0-3-2-1--0-0-3-2-1--0-0-3-2-1-----|

THATS IT.