Murderdolls - Love At First Fright Chords & Tabs

 

Love At First Fright Chords & Tabs

Murderdolls Chords & Tabs

Version: 9 Type: Tab 0 ratings
1 star 2 stars 3 stars 4 stars 5 stars
comments

Love At First Fright Tab

Band: Murderdolls
Song: Love At First Fright
Tabbed By: Lee Westwood

Hey let me know what you think of this by emailing me webmaster@murderdolls1.net
This is a really simple song learning this song you will be able to tell when and where everything goes.
hope you all like this tab and also my White Wedding Tab.

Intro
|--------------------------------------------|
|--------------------------------------------|
|-5------------------------------------------|
|-5--------5--------7--------3333333-5555555-|
|-3--------5--------7--------3333333-5555555-|
|----------3--------5--------1111111-3333333-|

cont.
|--------------------------------------|
|--------------------------------------|
|-55555555-----------------------------|
|-55555555-55555555-77777777-3333-5xxx-|
|-33333333-55555555-77777777-3333-5xxx-|
|----------33333333-55555555-1111-3xxx-|

verse
|--------------------------------------|
|--------------------------------------|
|-55555555-----------------------------|
|-55555555-55555555-77777777-3333-5xxx-|
|-33333333-55555555-77777777-3333-5xxx-|
|----------33333333-55555555-1111-3xxx-|


chorus gr1
|--------------------------------------|
|--------------------------------------|
|-55555555-----------------------------|
|-55555555-55555555-77777777-3333-5xxx-|
|-33333333-55555555-77777777-3333-5xxx-|
|----------33333333-55555555-1111-3xxx-|
[ Tab from: http://www.guitartabs.cc/tabs/m/murderdolls/love_at_first_fright_tab_ver_9.html ]
chorus gr2
|-8---7---5---3---8---7---5---3---8---7---5---3---1-1-1-1--3|
|-----------------------------------------------------------|
|-----------------------------------------------------------|
|-----------------------------------------------------------|
|-----------------------------------------------------------|
|-----------------------------------------------------------|


Solo
|----------------------------------------------------------------|
|----------------------------------------------------------------|
|----------------------------------------------------------------|
|10--12--141010121010--------------------------------------------|
|--------------------12101010----10h12p10------------------------|
|----------------------------------------10h12p1010h12-8-8h10p8--|

|-------------------------------------------------15p13----------|  
|-------------------------101010121313(15)13h15p13-----1313h15p13|
|-----------------99991012---------------------------------------|
|---------------10-----------------------------------------------|
|----------------------------------------------------------------|
|7h8p7-5h7p5-----------------------------------------------------|

|----------------------------------------------------------------|  
|13h15p1312h13p12------------------------------------------------|
|----------------14h16p1412h14p12--------------------------------|
|--------------------------------14h15p14-14---------------------|
|-------------------------------------------15/17\15-------------|
|----------------------------------------------------------------|

Out
|----------------------------------------|
|----------------------------------------|
|-55555555-------------------------5----5|
|-55555555-55555555-77-3333-5xxx---5----5|
|-33333333-55555555-77-3333-5xxx---3----3|
|----------33333333-55-1111-3xxx---------|
Comments