Murderdolls - Love At First Fright Chords & Tabs

 

Love At First Fright Chords & Tabs

Murderdolls Chords & Tabs

Version: 2 Type: Bass Tab

Love At First Fright Bass Tab

   
Love at First Fright
Murderdolls
Beyond the Valley of the Murderdolls
Standard Tuning
(EADG)
Tabbed by Taylor Smith


  Drum Part

  Intro  "When I saw you piss on the rug..."
G|-----------------------------------|
D|-----------------------------------|
A|-3~--------------------------------|
E|----3~--5~-/13\-1-1111111-3-333333-|


  Verse  "All the things that you said I did..."
G|----------------------------------------------------------------------|
D|----------------------------------------------------------------------|
A|-3333333333333333-----------------------------------------------------|
E|------------------3333333333333333-5555555555555555-11111111-33333333-|
 
  Prechorus
G|-------------------------------------------------------------------------------|
D|-------------------------------------------------------------------------------|
A|----------------------------------------------------88888888-1010101010101010--|
E|-11111111-3xxxxxx-11111111-3xxxxxx-11111111-3xxxxxx----------------------------|

  Chorus x2
G|----------------------------------------------------------------------|
D|----------------------------------------------------------------------|
A|-3333333333333333-----------------------------------------------------|
E|------------------3333333333333333-5555555555555555-11111111-33333333-|


  Postchorus
G|----------------------|
D|----------------------|
A|-3-33-33-33-3-33-3543-|
E|----------------------|


  Verse
G|------------------------------------------------|
D|------------------------------------------------|
A|-3-33-33-33-------------------------------------|
E|------------3-33-33-33-5-55-55-55-1-11-33333333-|

G|----------------------------------------------------------------------|
D|----------------------------------------------------------------------|
A|-3333333333333333-----------------------------------------------------|
E|------------------3333333333333333-5555555555555555-11111111-33333333-|


  Prechorus
G|-------------------------------------------------------------------------------|
D|-------------------------------------------------------------------------------|
A|----------------------------------------------------88888888-1010101010101010--|
E|-11111111-3xxxxxx-11111111-3xxxxxx-11111111-3xxxxxx----------------------------|

[ Tab from: http://www.guitartabs.cc/tabs/m/murderdolls/love_at_first_fright_btab_ver_2.html ]
  Chorus 
G|----------------------------------------------------------------------|
D|----------------------------------------------------------------------|
A|-3333333333333333-----------------------------------------------------|
E|------------------3333333333333333-5555555555555555-11111111-33333333-|

G|--------------------------------------------------------------------------------------|
D|--------------------------------------------------------------------------------------|
A|-3333333333333333-----------------------------------88888888-1010101010101010---------|
E|------------------3333333333333333-5555555555555555-----------------------------------|

  Solo
G|------------------------------------------------|
D|------------------------------------------------|
A|-3-33-33-33-------------------------------------|
E|------------3-33-33-33-5-55-55-55-1-11-33333333-|

G|----------------------------------------------------------------------|
D|----------------------------------------------------------------------|
A|-3333333333333333-----------------------------------------------------|
E|------------------3333333333333333-5555555555555555-11111111-33333333-|


  Prechorus
G|-------------------------------------------------------------------|
D|-------------------------------------------------------------------|
A|----------------------------------------------------88888888-10~~--|
E|-11111111-3xxxxxx-11111111-3xxxxxx-11111111-3xxxxxx----------------|


  Chorus 
G|----------------------------------------------------------------------|
D|----------------------------------------------------------------------|
A|\3333333333333333-----------------------------------------------------|
E|------------------3333333333333333-5555555555555555-11111111-33333333-|

G|--------------------------------------------------------------------------------------|
D|--------------------------------------------------------------------------------------|
A|-3333333333333333-----------------------------------88888888-1010101010101010---------|
E|------------------3333333333333333-5555555555555555-----------------------------------|

  Outro x2
G|----------------------------------------------------------------------|
D|----------------------------------------------------------------------|
A|-3333333333333333-----------------------------------------------------|
E|------------------3333333333333333-5555555555555555-11111111-33333333-|


End on
G|----|
D|----|
A|-3~-|
E|----|

Have fun with that...