Murderdolls - Love At First Fright Chords & Tabs

 

Love At First Fright Chords & Tabs

Murderdolls Chords & Tabs

Version: 1 Type: Bass Tab 0 ratings
1 star 2 stars 3 stars 4 stars 5 stars
comments

Love At First Fright Bass Tab

Murderdolls - Love At first fright

/ = Slide up     \ = Slide down    x = Ghost note   ~ = Let ring

Drumz intro            

Intro
G|----------------------------------------|
D|----------------------------------------|
A|--3~------------------------------------|
E|------3~--5~--/17\---11111111-33333333--|

Verse
G|----------------------------------------|
D|----------------------------------------|
A|--33333333------------------------------|
E|-----------33333333-55555555-1111-3333--|

Pre-Chorus
G|--------3X----------|---------------------|
D|--------------------|---------------------|
A|--------------------|--88888888-----------|
E|--1-1-111-33333333--|-----------33333333--|

Chorus
G|----------------------------------------|
D|----------------------------------------|
A|--33333333------------------------------|
E|-----------33333333-55555555-1111-3333--|

Bridge
G|-----------------------------|
D|-----------------------------|   
A|--3-xx3-x33x3-xx3-xx3-x3543--|
E|-----------------------------|

Little Pauze

Bridge 2
G|------------------------------------------------------------------|
D|------------------------------------------------------------------|
A|--3-xx3-x33x3-xx--------------------------------------------------|
E|-----------------3-xx3-x33x3-xx-5-xx5-x55x5-xx-1-xx1-xx-33333333--|

Verse 
[ Tab from: http://www.guitartabs.cc/tabs/m/murderdolls/love_at_first_fright_btab.html ]
Pre-Chorus2
G|--------3X----------|-----------------------------|
D|--------------------|-----------------------------|
A|--------------------|--88888888-1010101010101010--|
E|--1-1-111-33333333--|-----------------------------|

Chorus 2X

Bridge 2 

Verse

Pre-Chorus3
G|--------3X----------|-----------------------------|
D|--------------------|-----------------------------|
A|--------------------|--88888888-10~--Pauze--------|
E|--1-1-111-33333333--|-----------------------------|

Fill
G|-----------------------------|
D|-----------------------------|   
A|-----------------------------|
E|---Guitar------------/20\----|

Chorus

Chorus2
G|-------------------------------------------|
D|-------------------------------------------|
A|--33333333---------------------------------|
E|-----------33333333-55555555-1111-333-333--|
                                     ^   ^ 
                                    Triplets

Verse

Verse2
G|----------------------------------------------|
D|----------------------------------------------|
A|--33333333------------------------------------|
E|-----------33333333-55555555-111-111-333-333--|

Outro
G|-----------------------------|
D|-----------------------------|   
A|--3~--------------3\---------|
E|-----------------------------|

Whoej! Easy but fun

Comments, Questions, whatever Mail me; the_war_on_bush@hotmail.com
Comments