Murderdolls - I Love To Say Fuck Chords & Tabs

 

I Love To Say Fuck Chords & Tabs

Murderdolls Chords & Tabs

Version: 2 Type: Tab 0 ratings
1 star 2 stars 3 stars 4 stars 5 stars
comments

I Love To Say Fuck Tab

   
Intro:

e|-----------|
B|-----------|
G|-----------|
D|-9-9-9-9-9-| x1
A|-9-9-9-9-9-|
E|-7-7-7-7-7-|


Main Riff/ Verse:

E-----------------------------------------------|
B-----------------------------------------------|
G----------------------------------- ------|x13-| Intro/verse
D------------------------x-x-x------------------|
A--2-2-2-2--5-5-5-5--22--x-x-x------------------|
E--0-0-0-0--3-3-3-3--00--x-x-x------------------|


Pre-chorus riff:

e|---------------------------------|
B|---------------------------------|
G|---------------------------------|
D|-2-2-2-2-5-5-5-5-2-2-4-4-5-5-6-6-|
A|-2-2-2-2-5-5-5-5-2-2-4-4-5-5-6-6-| x1
E|-0-0-0-0-3-3-3-3-0-0-2-2-3-3-4-4-|


Chorus:

Guitar 1:

e|-----------------------------------------|
B|-----------------------------------------|
G|-----------------------------------------|
D|-7~--2~---7----9-------------------------|
A|-7~--2~---7----9-------------------------|
E|-5~--0~---5----7-------------------------|

E-----------------------------------------------|
B-----------------------------------------------|
G----------------------------------- ------|x13-| Intro/verse
D------------------------x-x-x------------------|
A--2-2-2-2--5-5-5-5--22--x-x-x------------------|
E--0-0-0-0--3-3-3-3--00--x-x-x------------------|


e|---------------------------------|
B|---------------------------------|
G|---------------------------------|
D|-2-2-2-2-5-5-5-5-2-2-4-4-5-5-6-6-|
A|-2-2-2-2-5-5-5-5-2-2-4-4-5-5-6-6-| x1
E|-0-0-0-0-3-3-3-3-0-0-2-2-3-3-4-4-|


Chorus:

Guitar 1:

e|-----------------------------------------|
B|-----------------------------------------|
G|-----------------------------------------|
D|-7~--2~---7----9-------------------------|
A|-7~--2~---7----9-------------------------|
E|-5~--0~---5----7-------------------------|


E--------------------------------------------|
B--------------------------------------------|
G----------------------------------- --------|x4 Intro/verse
D------------------------x-x-x---------------|
A--2-2-2-2--5-5-5-5--22--x-x-x---------------|
E--0-0-0-0--3-3-3-3--00--x-x-x---------------|

Solo:
[ Tab from: http://www.guitartabs.cc/tabs/m/murderdolls/i_love_to_say_fuck_tab_ver_2.html ]
e|----------------------------------------------------------------|
B|----------------------------------------------------------------|
G|-14b16-16-14b16-16-14-16-14b16(gradual)-16-16-16-16r14-12-------|
D|----------------------------------------------------------14----| x2
A|----------------------------------------------------------------|
E|----------------------------------------------------------------|

e|---------------------------------------------------------------------------|
B|-------------------------------------- ------------------12-12-12-12-12-12-|
G|-14b16(gradual)14b1614b1614b16-16-16-16-16-16-16-16-16r14------------------|
D|---------------------------------------------------------------------------|
A|---------------------------------------------------------------------------|
E|---------------------------------------------------------------------------|

Bass only, then:

e|------------------------------------|
B|------------------------------------|
G|------------------------------------|
D|------------------------------------|
A|------------------------------------| x9
E|-0-0-0-0-3-3-3-3-0-0----------------|
 |<-----------------------------------|
       Palm Mute

Then:

e|---------------------------------|
B|---------------------------------|
G|---------------------------------|
D|-2-2-2-2-5-5-5-5-2-2-4-4-5-5-6-6-|
A|-2-2-2-2-5-5-5-5-2-2-4-4-5-5-6-6-| x1
E|-0-0-0-0-3-3-3-3-0-0-2-2-3-3-4-4-|


Chorus:
Guitar 1:

e|-----------------------------------------|
B|-----------------------------------------|
G|-----------------------------------------|
D|-7~--2~---7----9-------------------------|
A|-7~--2~---7----9-------------------------|
E|-5~--0~---5----7-------------------------|

E--------------------------------------------|
B--------------------------------------------|
G----------------------------------- --------|x4 Intro/verse
D------------------------x-x-x---------------|
A--2-2-2-2--5-5-5-5--22--x-x-x---------------|
E--0-0-0-0--3-3-3-3--00--x-x-x---------------|


Guitar 1:

e|-----------------|
B|-----------------|
G|-----------------|
D|-2-2-2-2-5-7-7-5-| x25
A|-2-2-2-2-5-7-7-5-|
E|-0-0-0-0-3-5-5-3-|


e|--------------|
B|--------------|
G|--------------|
D|-2~~~---------|
A|-2~~~---------|
E|-0~~~---------|


E--------------------------------------------|
B--------------------------------------------|
G----------------------------------- --------| x1 outro
D------------------------x-x-x---------------|
A--2-2-2-2--5-5-5-5--22--x-x-x---------------|
E--0-0-0-0--3-3-3-3--00--x-x-x---------------|
Comments