Murderdolls - I Love To Say Fuck Chords & Tabs

 

I Love To Say Fuck Chords & Tabs

Murderdolls Chords & Tabs

Version: 2 Type: Bass Tab

I Love To Say Fuck Bass Tab

BASS
MURDERDOLLS
I LOVE TO SAY F***

TABBED BY BMILNE
EADG

INTRO
G---------------------------|
D---------------------------|
A---------------------------|
E-0-0-0-0-0-0-0-0-0-0-0-0---|

MAIN RIFF
G-------------------------|
D-------------------------|
A-------------------------|
E-0-0-0-0-3-3-3-3-0-0-----|
[ Tab from: http://www.guitartabs.cc/tabs/m/murderdolls/i_love_to_say_fuck_btab_ver_2.html ]
CHORUS RIFF
G---------------------------------------------------------------------------|
D---------------------------------------------------------------------------|
A---------------------------------------------------------------------------|
E-2-2-3-3-4-4-5-5-5-5-5-5-5-5-5-5-1-1-1-1-1-1-1-1-1-1-5-5-5-5-5-5-5-5-5-5---|

G-----------------------|
D-----------------------|
A-----------------------|
E-7-7-7-7-7-7-7-7-7-7---|

END RIFF
G------------------------------|
D------------------------------|
A------------------------------|
E-0-0--0-3-5-3--0-0--0-3-5-3---|

G------------|
D------------|
A------------|
E-0----------|

GREAT SONG.