Murderdolls - Grave Robbing Usa Chords & Tabs

 

Grave Robbing Usa Chords & Tabs

Murderdolls Chords & Tabs

Version: 2 Type: Tab 0 ratings
1 star 2 stars 3 stars 4 stars 5 stars
comments

Grave Robbing Usa Tab

========================================================================
                ~~The Murderdolls - Grave Robbing U.S.A~~
                          ~~Tabbed by SemuS~~
========================================================================
Album: Beyond the Valley of the Murderdolls
tuning: normal


~Intro + Verse~ (X2)  (intro and verse are same):

 |------------------------------------------------------------|
 |------------------------------------------------------------|
 |-----------7-7-6-7--5-5-4-5---------------------------------|
 |--5-5-4-5--7-7-6-7--5-5-4-5--5-5-4-5------------------------|
 |--5-5-4-5--5-5-4-5--3-3-2-3--5-5-4-5------------------------|
 |--3-3-2-3--------------------3-3-2-3------------------------|
 

~Chorus~ (X2)

 |--------------------------------------------------------------------|
 |--------------------------------------------------------------------|
 |-------------------7-7-7-7-7-7-7-7--5-5-5-5-5-5-5-5-----------------|
 |--5-5-5-5-5-5-5-5--7-7-7-7-7-7-7-7--5-5-5-5-5-5-5-5--5-5-5-5-5-5-5-5|
 |--5-5-5-5-5-5-5-5--5-5-5-5-5-5-5-5--3-3-3-3-3-3-3-3--5-5-5-5-5-5-5-5|
 |--3-3-3-3-3-3-3-3------------------------------------3-3-3-3-3-3-3-3|

~Bridge thingy + verse~ (X2 times including the part when that guy's talking).
(exactly like the first verse part).

 |------------------------------------------------------------|
 |------------------------------------------------------------|
 |-----------7-7-6-7--5-5-4-5---------------------------------|
 |--5-5-4-5--7-7-6-7--5-5-4-5--5-5-4-5------------------------|
 |--5-5-4-5--5-5-4-5--3-3-2-3--5-5-4-5------------------------|
 |--3-3-2-3--------------------3-3-2-3------------------------|
[ Tab from: http://www.guitartabs.cc/tabs/m/murderdolls/grave_robbing_usa_tab_ver_2.html ]
~Chorus again~ (X2)
 
 |--------------------------------------------------------------------|
 |--------------------------------------------------------------------|
 |-------------------7-7-7-7-7-7-7-7--5-5-5-5-5-5-5-5-----------------|
 |--5-5-5-5-5-5-5-5--7-7-7-7-7-7-7-7--5-5-5-5-5-5-5-5--5-5-5-5-5-5-5-5|
 |--5-5-5-5-5-5-5-5--5-5-5-5-5-5-5-5--3-3-3-3-3-3-3-3--5-5-5-5-5-5-5-5|
 |--3-3-3-3-3-3-3-3------------------------------------3-3-3-3-3-3-3-3|

~During solo, its like the chorus~ (X2)

 |--------------------------------------------------------------------|
 |--------------------------------------------------------------------|
 |-------------------7-7-7-7-7-7-7-7--5-5-5-5-5-5-5-5-----------------|
 |--5-5-5-5-5-5-5-5--7-7-7-7-7-7-7-7--5-5-5-5-5-5-5-5--5-5-5-5-5-5-5-5|
 |--5-5-5-5-5-5-5-5--5-5-5-5-5-5-5-5--3-3-3-3-3-3-3-3--5-5-5-5-5-5-5-5|
 |--3-3-3-3-3-3-3-3------------------------------------3-3-3-3-3-3-3-3|

~Verse~ (X1)

 |------------------------------------------------------------|
 |------------------------------------------------------------|
 |-----------7-7-6-7--5-5-4-5---------------------------------|
 |--5-5-4-5--7-7-6-7--5-5-4-5--5-5-4-5------------------------|
 |--5-5-4-5--5-5-4-5--3-3-2-3--5-5-4-5------------------------|
 |--3-3-2-3--------------------3-3-2-3------------------------|

~Chorus~ (X2)

 |--------------------------------------------------------------------|
 |--------------------------------------------------------------------|
 |-------------------7-7-7-7-7-7-7-7--5-5-5-5-5-5-5-5-----------------|
 |--5-5-5-5-5-5-5-5--7-7-7-7-7-7-7-7--5-5-5-5-5-5-5-5--5-5-5-5-5-5-5-5|
 |--5-5-5-5-5-5-5-5--5-5-5-5-5-5-5-5--3-3-3-3-3-3-3-3--5-5-5-5-5-5-5-5|
 |--3-3-3-3-3-3-3-3------------------------------------3-3-3-3-3-3-3-3|

~Outro~ (X1)

 |------------------------------------------------------------|
 |------------------------------------------------------------|
 |-----------7x-------5x--------------------------------------|
 |--5x-------7x-------5x-------5x-----------------------------|
 |--5x-------5x-------3x-------5x-----------------------------|
 |--3x-------------------------3x-----------------------------|




Thats it.. to laugh at me, tell me i suck, any other things of the kind.. mail me at Yn_on@hotmail.com

enjoy.. Murderdolls rule weee :)
Comments