Murderdolls - Grave Robbing Usa Chords & Tabs

 

Grave Robbing Usa Chords & Tabs

Murderdolls Chords & Tabs

Version: 1 Type: Tab 0 ratings
1 star 2 stars 3 stars 4 stars 5 stars
comments

Grave Robbing Usa Tab

artist: murderdolls
song: grave robbing usa
album: beyond the valley of the murderdolls


intro and verse

E|---------------------------------------------------------------
B|---------------------------------------------------------------
G|-------------------7-7\6/7----------5-5\4/5--------------------
D|--5-5\4/5-x-x-x-x--7-7\6/7-x-x-x-x--5-5\4/5-x-x-x-x--5-5\4/5---
A|--5-5\4/5-x-x-x-x--5-5\4/5-x-x-x-x--3-3\2/3-x-x-x-x--5-5\4/5---
E|--3-3\2/3-x-x-x-x----------x-x-x-x----------x-x-x-x--3-3\2/3---

Chorus

E|-----------------------------------------------------------
B|-----------------------------------------------------------
G|-------------------7-7-7-7-7-7-7-7--5-5-5-5-5-5-5-5--------
D|--5-5-5-5-5-5-5-5--7-7-7-7-7-7-7-7--5-5-5-5-5-5-5-5--5-----
A|--5-5-5-5-5-5-5-5--5-5-5-5-5-5-5-5--3-3-3-3-3-3-3-3--5-x8--
E|--3-3-3-3-3-3-3-3------------------------------------3-----

solo
[ Tab from: http://www.guitartabs.cc/tabs/m/murderdolls/grave_robbing_usa_tab.html ]
e|--15--14--12--15--14-12-10--12--10--8--12--10-8-7-8-7---|
B|--------------------------------------------------------|
G|--------------------------------------------------------|
D|--------------------------------------------------------|
A|--------------------------------------------------------|
E|--------------------------------------------------------|

e|-------------------------------------------------------------
B|-8---8-----7b--8b---------------------8h10p8-7-8-7h8p7-5h7p5-
G|---7---9b----------9b-9b-9b-7----7-9-------------------------
D|------------------------------10-----------------------------
A|-------------------------------------------------------------
E|-------------------------------------------------------------

(this bit is continued from above i just couldnt fit it on)
e|--------------------------------------------------------|
B|--------------------------------------------------------|
G|---7-5-4-5p4--------------------------------------------|
D|--------------7-5---------------------------------------|
A|--------------------------------------------------------|
E|--------------------------------------------------------|

Comments