Murderdolls - Grave Robbing Usa Chords & Tabs

 

Grave Robbing Usa Chords & Tabs

Murderdolls Chords & Tabs

Version: 1 Type: Bass Tab 0 ratings
1 star 2 stars 3 stars 4 stars 5 stars
comments

Grave Robbing Usa Bass Tab

I can't remember if there are any more parts to this song since I don't have the CD.
Anyway here are the parts I remember-

|---------------------------------------------|
|---------------------------------------------|
|-------------5-5-4-5-----3-3-2-3-------------|
|-3-3-2-3-----------------------------3-3-2-3-|
[ Tab from: http://www.guitartabs.cc/tabs/m/murderdolls/grave_robbing_usa_btab.html ]
|-------------------------------------------------------------------------|
|-------------------------------------------------------------------------|
|-------------------5-5-4-5-5-5-5-5-5-3-3-2-3-3-3-3-3-3-------------------|
|-3-3-2-3-3-3-3-3-3-------------------------------------3-3-2-3-3-3-3-3-3-|

...EASY!...Comments-Leeuk123@aol.com
Comments