Murderdolls - Dressed To Depress Chords & Tabs

 

Dressed To Depress Chords & Tabs

Murderdolls Chords & Tabs

Version: 1 Type: Bass Tab 0 ratings
1 star 2 stars 3 stars 4 stars 5 stars
comments

Dressed To Depress Bass Tab

Another Murderdolls tab by me. :-)

Song:Dressed to Depress
Tuning:EADG

|------------------------------------------------------|
|------------------------------------------------------|
|------------------------------------------------------|
|-/44444444/1616161616161616/44444444/1616161616161616-|
[ Tab from: http://www.guitartabs.cc/tabs/m/murderdolls/dressed_to_depress_btab.html ]
|-------------------------------------|
|-------------------------------------|
|-4-4-4-44----------------------------|
|----------4-4-4-44-5-5-5-55-0-0-0-00-|

|---------------------------------|
|---------------------------------|
|-4-4-4-4-------------------------|
|---------4-4-4-4-5-5-5-5-0-0-0-0-|

|-----------------------------------------|
|-4444-77777-222222-55-4444-77777-2-------|
|-----------------------------------7-7-7-|
|-----------------------------------------|

I can't remember how the last part goes but it is something similar to
what I've tabbed.
Comments