Murderdolls - Die My Bride Chords & Tabs

 

Die My Bride Chords & Tabs

Murderdolls Chords & Tabs

Version: 9 Type: Tab

Die My Bride Tab

Low to high eBGDAE

Intro Gt. 1 (no guitar 2)
e|-------------------|
B|-----------8~---7~-|
G|---9~--------------| X Whatever
D|-------------------|
A|-------------------|
E|-------------------|

Stright Into The Chorus Riff (Both guitars)
e|-----------------------------------------------------------|
B|-----------------------------------------------------------|
G|-----------------------------------------------------------|
D|--2-2-4-5-2-2---2-2-4-5-2-2---2-2-4-5-2-2---2-2-4-5-7-5-2~-|
A|--2-2-4-5-2-2---2-2-4-5-2-2---2-2-4-5-2-2---2-2-4-5-7-5-2~-|
E|--0-0-2-3-0-0---0-0-2-3-0-0---0-0-2-3-0-0---0-0-2-3-5-3-0~-|
[ Tab from: http://www.guitartabs.cc/tabs/m/murderdolls/die_my_bride_tab_ver_9.html ]
Post-Chorus Gt. 1
e|---------------------|
B|---------------------|
G|---------------------| X2
D|---12~---11~----9~---|
A|---------------------|
E|---------------------|

Post-Chorus Gt. 2
e|--------------------|
B|--------------------|
B|--------------------|
G|--------------------| X2
D|---5~---4~----2~----|
A|---5~---4~----2~----|
E|---3~---2~----0~----|

Verse: Bass

Pre-Chorus Gt. 1
e|---------------|
B|-12-11--10--9--|
G|--x--x---x--x--|
D|--9--8---7--6--| X4
A|---------------|
E|---------------|

Pre-Chorus Gt. 2
e|---------------|
B|---------------|
G|---------------| X4
D|--9--8---7--6--|
A|--9--8---7--6--|
E|--7--6---5--4--|

Chorus

Post-Chorus

Bass Verse

Pre Chorus

Chorus

Pre-Chorus

Chorus