Murderdolls - Die My Bride Chords & Tabs

 

Die My Bride Chords & Tabs

Murderdolls Chords & Tabs

Version: 7 Type: Tab 0 ratings
1 star 2 stars 3 stars 4 stars 5 stars
comments

Die My Bride Tab

-------------------------------------------------------------------------------
			    Die My Bride - Murderdolls
-------------------------------------------------------------------------------
Tabbed by: Kieran
Email: slipknot_4_eva666@hotmail.com

*  Let ring
[ Tab from: http://www.guitartabs.cc/tabs/m/murderdolls/die_my_bride_tab_ver_7.html ]
Riff 1.
e|---------------------------------------------------------------------------|
B|---------------------------------------------------------------------------|
G|---------------------------------------------------------------------------|
D|-2-2-3-4-2-2---------------------------------------------------------------| 
A|-2-2-3-4-2-2---------------------------------------------------------------|
E|-2-2-3-4-2-2---------------------------------------------------------------|
Riff 2.
e|---------------------------------------------------------------------------|
B|---------------------------------------------------------------------------|
G|---------------------------------------------------------------------------|
D|-2-2-3-4-7-5-2-------------------------------------------------------------|
A|-2-2-3-4-7-5-2-------------------------------------------------------------|
E|-2-2-3-4-7-5-2-------------------------------------------------------------|
Riff 3.
e|---------------------------------------------------------------------------|
B|---------------------------------------------------------------------------|
G|--8*----------7*-----------------5*----------------------------------------|
D|---------------------------------------------------------------------------|
A|---------------------------------------------------------------------------|
E|---------------------------------------------------------------------------|
Riff 4.
e|---------------------------------------------------------------------------|
B|---------------------------------------------------------------------------|
G|-8*------------7*----------------------------------------------------------|
D|---------------------------------------------------------------------------|
A|---------------------------------------------------------------------------|
E|---------------------------------------------------------------------------|
Riff 5.
e|---------------------------------------------------------------------------|
B|---------------------------------------------------------------------------|
G|---------------------------------------------------------------------------|
D|--7-6-5-4------------------------------------------------------------------|
A|--7-6-5-4------------------------------------------------------------------|
E|--7-6-5-4------------------------------------------------------------------|


Layout: 

Riff 1.   x3
Riff 2.   x1

Riff 3.   x1
Riff 4.   x1

Riff 5.   x4

Riff 1.   x3
Riff 2.   x1
Riff 1.   x3
Riff 2.   x1

Riff 3.   x1
Riff 4.   x1

Riff 5.   x4

Riff 1.   x3
Riff 2.   x1
Riff 1.   x3
Riff 2.   x1

Riff 5.   x4  (straight after)


Riff 1.   x3
Riff 2.   x1
Riff 1.   x3
Riff 2.   x1
Comments