Murderdolls - Dead In Chords & Tabs

 

Dead In Chords & Tabs

Murderdolls Chords & Tabs

Version: 1 Type: Tab 0 ratings
1 star 2 stars 3 stars 4 stars 5 stars
comments

Dead In Tab

http://kickass.at/fun4u

http://kickass.at/fun4u

Murderdolls - Dead in Hollywood

from the Album "In the Valley of...."


tabbed by heffi
Criticism or Changes to this address : digheads@web.de ! thx

I hope this version is right. i saw some versions, that looked 
nearly the same as this here, so DONT WONDER !

Standard Tuning (NO drop-d !!!)

Main Riff (Intro, Verse, Outro):
e|-------------------------------------------------------------
B|-------------------------------------------------------------
G|-------------------------------------------------------------
D|-2-2-3-2--in the Intro, after---------2-2-3-2-2-2-2-2--------REPEAT
A|-2-2-3-2--you played it about 8 times-2-2-3-2-2-2-2-2--------
E|-0-0-1-0------------------------------0-0-1-0-0-0-0-0--------

Part between Verse and Chorus :
[ Tab from: http://www.guitartabs.cc/tabs/m/murderdolls/dead_in_tab.html ]
e|-------------------------------------------------------------
B|-------------------------------------------------------------
G|-------------------------------------------------------------
D|-5-5-4-4-3-2--3-2-2-2-2---------------------------------------
A|-5-5-4-4-3-2--3-2-2-2-2--------------------------------------
E|-3-3-2-2-1-0--1-0-0-0-0--------------------------------------
Play this part 2 times in the first verse, without chorus and go on with the main riff
And Play this about after the second verse 2 times and then comes the Chorus

Chorus :

e|-----------------------------------------
B|-----------------------------------------
G|---5-5-5---------------5-5-5-------10-9--
D|-2-5-5-5-5-5-5-7-8---2-5-5-5-5-5-5-10-9--
A|-2-3-3-3-5-5-5-7-8---2-3-3-3-5-5-5-8--7--
E|-0-------3-3-3-5-6---0-------3-3-3-------



Solo :

e|---------------------------------------------------
B|---------------------------------------------------
G|--7-7-7-7-7-7-6-6-6-5-5-5--------------------------
D|--------------------------8--5h7h5-----------------
A|-----------------------------------7-6-5-4-3-------
E|---------------------------------------------------

Thats not the whole solo, because i couldn't figured out the last part

But I will try to make this last part up later



Have fun with this tab and visit my site :

http://kickass.at/fun4u

http://kickass.at/fun4u
Comments