Murderdolls - Dead In Hollywood Chords & Tabs

 

Dead In Hollywood Chords & Tabs

Murderdolls Chords & Tabs

Version: 3 Type: Bass Tab 0 ratings
1 star 2 stars 3 stars 4 stars 5 stars
comments

Dead In Hollywood Bass Tab

The murderdolls are the best band ever, here's their best song!


 1) It starts with:

    |---0-0-2-0---0-0-2-0----| X6
    |------------------------|
    |------------------------|
    |------------------------|

 2) Hey Dracula, I heard you suck,

    |---0-0-2-0-0-0-0-2-0----| X6
    |------------------------|
    |------------------------|
    |------------------------|
[ Tab from: http://www.guitartabs.cc/tabs/m/murderdolls/dead_in_hollywood_btab_ver_3.html ]
 3) And then the pre-chorus
    
    |---0-0-2-0-0-0-0-2-0-0-5-5-5-5-4-4-4-4-3-3-3-3-2-2-2-2-0-0-0-0| X2
    |--------------------------------------------------------------|
    |--------------------------------------------------------------|
    |--------------------------------------------------------------|
  
 Then 1),2) and 3) again

  4) Chorus
 
    |---0-5-3-3-2-0-0-2-3---0-3-7-7-7-6-6---| X2
    |---------------------------------------|
    |---------------------------------------|
    |---------------------------------------|

 Then play 1)x1 and 2) all the way through the guitar solo bit and until the chorus x4
Comments