Murderdolls - Dead In Hollywood Chords & Tabs

 

Dead In Hollywood Chords & Tabs

Murderdolls Chords & Tabs

Version: 2 Type: Bass Tab 0 ratings
1 star 2 stars 3 stars 4 stars 5 stars
comments

Dead In Hollywood Bass Tab

   
Song: Dead in Hollywood
Artist: Murderdolls
Album: Beyond the valley of the Murderdolls

O.K, I dont play bass much but this song was piss-easy to figure out.

Intro/Verse:

G:------------------------------
D:------------------------------
A:------------------------------
E:--0-0-1-0---0-0-1-0----------- a load of times

Pre-Chorus: (coz all my heroes are dead...)

A:------------------------------
E:-3-3-3-3-3-3-2-2-2-1-1--------

A:------------------------------
E:--0-0-1-0------0-0-0-0-0------    All that x2

[ Tab from: http://www.guitartabs.cc/tabs/m/murderdolls/dead_in_hollywood_btab_ver_2.html ]
Then another verse, then another pre-chorus.

Chorus: (Dead. your so dead in...)

A:------3x----------------------
E:-0-x------3-3-3-3-3-3---------    A few times.


D-E-A-D thats how i wanna be.........
While wednesday13 is singin that go

E:-0-0-1-0------0-0-1-0---------

Then while the solo is playin carry on doin that!

Then a pre chorus and a chorus then:

Outro:

E:--0-0-1-0---------------------   a load of times.


Well thats my third tab. send any abuse e.t.c to   Mattfranklin14@hotmail.com

ANARCHY!
Comments