Murderdolls - Dawn Of The Dead Chords & Tabs

 

Dawn Of The Dead Chords & Tabs

Murderdolls Chords & Tabs

Version: 4 Type: Tab 0 ratings
1 star 2 stars 3 stars 4 stars 5 stars
comments

Dawn Of The Dead Tab

   
Artist:Murderdolls
Song:Dawn Of The Dead
Album:Beyond The Valley Of The Murderdolls
Tabber: Baphomet AKA Michelle...

Intro (Lead Guitar):
E |-12-12-11-11-7-7-7-7--12-12-11-11-4-4-4-4---------|
B |--------------------------------------------------|
G |--------------------------------------------------|
D |--------------------------------------------------|
A |--------------------------------------------------|
E |--------------------------------------------------|

Intro (Rhythm Guitar):
E |------------------------------------------------|
B |------------------------------------------------|
G |------------------------------------------------|
D |------------------------------------------------|
A |------------------------------------------------|
E |-12-12-11-11-7-7-7-7--12-12-11-11-4-4-4-4-------|

Pre-Verse (Lead Guitar):
E|--------------------------------------------------12-14-|
B|--------------------------------------------------------|
G|--------------------------------------------------------|
D|--------------------------------------------------------|
A|--2-2--4-4-4-4--6-6-4-6--2-0--2-2-2-2--4-4-2-4----------|
E|--0-0--2-2-2-2--4-4-2-4--0-0--2-2-2-2--4-4-2-4----------|

Pre-Verse (Rhythm Guitar):
E|------------------------------------------------------|
B|------------------------------------------------------|
G|------------------------------------------------------|
D|------------------------------------------------------|
A|--2-2--4-4-4-4--6-6-4-6--2-0--2-2-2-2--4-4-2-4--------|
E|--0-0--2-2-2-2--4-4-2-4--0-0--2-2-2-2--4-4-2-4--12-14-|

Verse (Lead Guitar):
E |-12-12-11-11-7-7-7-7--12-12-11-11-4-4-4-4---------|
B |--------------------------------------------------|
G |--------------------------------------------------|
D |--------------------------------------------------|
A |--------------------------------------------------|
E |--------------------------------------------------|

Verse (Rhythm Guitar):
E |------------------------------------------------|
B |------------------------------------------------|
G |------------------------------------------------|
D |------------------------------------------------|
A |------------------------------------------------|
E |-12-12-11-11-7-7-7-7--12-12-11-11-4-4-4-4-------|

Pre-Chorus 1 (Lead Guitar):
E|--------------------------------------------------12-14-|
B|--------------------------------------------------------|
G|--------------------------------------------------------|
D|--------------------------------------------------------|
A|--2-2--4-4-4-4--6-6-4-6--2-0--2-2-2-2--4-4-2-4----------|
E|--0-0--2-2-2-2--4-4-2-4--0-0--2-2-2-2--4-4-2-4----------|

Pre-Chorus 1 (Rhythm Guitar):
E|------------------------------------------------------|
B|------------------------------------------------------|
G|------------------------------------------------------|
D|------------------------------------------------------|
A|--2-2--4-4-4-4--6-6-4-6--2-0--2-2-2-2--4-4-2-4--------|
E|--0-0--2-2-2-2--4-4-2-4--0-0--2-2-2-2--4-4-2-4--12-14-|

Chorus 1 (Lead Guitar):
E |-12-12-11-11-7-7-7-7--12-12-11-11-4-4-4-4---------|
B |--------------------------------------------------|
G |--------------------------------------------------|
D |--------------------------------------------------|
A |--------------------------------------------------|
E |---------------------------------------------------|

Chorus 1 (Rhythm Guitar):
E |------------------------------------------------|
B |------------------------------------------------|
G |------------------------------------------------|
D |------------------------------------------------|
A |------------------------------------------------|
E |-12-12-11-11-7-7-7-7--12-12-11-11-4-4-4-4-------|

Pre-Verse (Lead Guitar):
E|--------------------------------------------------12-14-|
B|--------------------------------------------------------|
G|--------------------------------------------------------|
D|--------------------------------------------------------|
A|--2-2--4-4-4-4--6-6-4-6--2-0--2-2-2-2--4-4-2-4----------|
E|--0-0--2-2-2-2--4-4-2-4--0-0--2-2-2-2--4-4-2-4----------|

Pre-Verse (Rhythm Guitar):
E|------------------------------------------------------|
B|------------------------------------------------------|
G|------------------------------------------------------|
D|------------------------------------------------------|
A|--2-2--4-4-4-4--6-6-4-6--2-0--2-2-2-2--4-4-2-4--------|
E|--0-0--2-2-2-2--4-4-2-4--0-0--2-2-2-2--4-4-2-4--12-14-|
[ Tab from: http://www.guitartabs.cc/tabs/m/murderdolls/dawn_of_the_dead_tab_ver_4.html ]
Verse (Lead Guitar):
E |-12-12-11-11-7-7-7-7--12-12-11-11-4-4-4-4---------|
B |--------------------------------------------------|
G |--------------------------------------------------|
D |--------------------------------------------------|
A |--------------------------------------------------|
E |--------------------------------------------------|

Verse (Rhythm Guitar):
E |------------------------------------------------|
B |------------------------------------------------|
G |------------------------------------------------|
D |------------------------------------------------|
A |------------------------------------------------|
E |-12-12-11-11-7-7-7-7--12-12-11-11-4-4-4-4-------|

Pre-Chorus 1 (Lead Guitar):
E|--------------------------------------------------12-14-|
B|--------------------------------------------------------|
G|--------------------------------------------------------|
D|--------------------------------------------------------|
A|--2-2--4-4-4-4--6-6-4-6--2-0--2-2-2-2--4-4-2-4----------|
E|--0-0--2-2-2-2--4-4-2-4--0-0--2-2-2-2--4-4-2-4----------|

Pre-Chorus 1 (Rhythm Guitar):
E|------------------------------------------------------|
B|------------------------------------------------------|
G|------------------------------------------------------|
D|------------------------------------------------------|
A|--2-2--4-4-4-4--6-6-4-6--2-0--2-2-2-2--4-4-2-4--------|
E|--0-0--2-2-2-2--4-4-2-4--0-0--2-2-2-2--4-4-2-4--12-14-|

Chorus 1 (Lead Guitar):
E |-12-12-11-11-7-7-7-7--12-12-11-11-4-4-4-4---------|
B |--------------------------------------------------|
G |--------------------------------------------------|
D |--------------------------------------------------|
A |--------------------------------------------------|
E |--------------------------------------------------|

Chorus 1 (Rhythm Guitar):
E |------------------------------------------------|
B |------------------------------------------------|
G |------------------------------------------------|
D |------------------------------------------------|
A |------------------------------------------------|
E |-12-12-11-11-7-7-7-7--12-12-11-11-4-4-4-4-------|

Chorus 2 (Lead Guitar):
E |-12-12-11-11-7-9-7-4--12-12-11-11-4-4-4-4---------|
B |--------------------------------------------------|
G |--------------------------------------------------|
D |--------------------------------------------------|
A |--------------------------------------------------|
E |--------------------------------------------------|

Chorus 2 (Rhythm Guitar):
E |------------------------------------------------|
B |------------------------------------------------|
G |------------------------------------------------|
D |------------------------------------------------|
A |------------------------------------------------|
E |-12-12-11-11-7-9-7-4--12-12-11-11-4-4-4-4-------|

Solo (Lead Guitar):
E |--------------------------------|
B |-4-5-4-4-7-5-4-5-4-0-4-4-5-4-4-0|
G |--------------------------------|
D |--------------------------------|
A |--------------------------------|
E |--------------------------------|

Solo (Rhythm Guitar):
E |------------------------------------------------|
B |------------------------------------------------|
G |------------------------------------------------|
D |------------------------------------------------|
A |------------------------------------------------|
E |-12-12-11-11-7-7-7-7--12-12-11-11-4-4-4-4-------|

Pre-Chorus 1 (Lead Guitar):
E|--------------------------------------------------12-14-|
B|--------------------------------------------------------|
G|--------------------------------------------------------|
D|--------------------------------------------------------|
A|--2-2--4-4-4-4--6-6-4-6--2-0--2-2-2-2--4-4-2-4----------|
E|--0-0--2-2-2-2--4-4-2-4--0-0--2-2-2-2--4-4-2-4----------|

Pre-Chorus 1 (Rhythm Guitar):
E|------------------------------------------------------|
B|------------------------------------------------------|
G|------------------------------------------------------|
D|------------------------------------------------------|
A|--2-2--4-4-4-4--6-6-4-6--2-0--2-2-2-2--4-4-2-4--------|
E|--0-0--2-2-2-2--4-4-2-4--0-0--2-2-2-2--4-4-2-4--12-14-|

Drum & Bass (Lead Guitar Over It)
E |-12-12-11-11-7-7-7-7--12-12-11-11-4-4-4-4---------|
B |--------------------------------------------------|
G |--------------------------------------------------|
D |--------------------------------------------------|
A |--------------------------------------------------|
E |--------------------------------------------------|

Outro (Lead Guitar):
E |---------------------------------|
B |-4-5-4-4-7-5-4-5-4-0-4-4-5-4-4-0-|
G |---------------------------------|
D |---------------------------------|
A |---------------------------------|
E |---------------------------------|

Outro (Rhythm Guitar):
E|-------------------------------------------------|
B|-------------------------------------------------|
G|-------------------------------------------------|
D|-------------------------------------------------|
A|--2-2--4-4-4-4--6-6-4-6--2-0--2-2-2-2--4-4-2-4---|
E|--0-0--2-2-2-2--4-4-2-4--0-0--2-2-2-2--4-4-2-4---|
Comments