Murderdolls - 197666 Chords & Tabs

 

197666 Chords & Tabs

Murderdolls Chords & Tabs

Version: 5 Type: Tab 0 ratings
1 star 2 stars 3 stars 4 stars 5 stars
comments

197666 Tab

Tabbed by Pagey01
any questions e-mail me at Pagey_01@hotmail.com

ALBUM:  Valley of the Murderdolls
ARTIST: Murderdolls
SONG:   197666

Sorry i couldn't figure out the lead guitar exept for the solo.

. = Palm mute
/ = Slide
^ = Bend                     RATE THIS TAB Plz!!
p = Pull off

  INTRO
E)-------------------------------------------------------|
B)-------------------------------------------------------|
G)-------------------------------------------------------|
D)--7--7/----7--7/----10--5--7-7-7-7-7-7-7-7-7-7-7-7-----|
A)--7--7/----7--7/----10--5--7-7-7-7-7-7-7-7-7-7-7-7-----|
E)--5--5/----5--5/----8---3--5-5-5-5-5-5-5-5-5-5-5-5-----|
    .        .                 . . . . . . . . . . .

  VERSE
E)------------------------------------------------------------------------------------|
B)------------------------------------------------------------------------------------|
G)------------------------------------------------------------------------------------|
D)--7-7-7-7-7-7-7-7-7-7-7-7-7-7-7-7--10-10-10-10-10-10-10-10-10-10-10-10-10-10-10-10--|
A)--7-7-7-7-7-7-7-7-7-7-7-7-7-7-7-7--10-10-10-10-10-10-10-10-10-10-10-10-10-10-10-10--|
E)--5-5-5-5-5-5-5-5-5-5-5-5-5-5-5-5--8--8--8--8--8--8--8--8--8--8--8--8--8--8--8--8---|

E)--------------------------------------------------------------------|
B)--------------------------------------------------------------------|
G)--------------------------------------------------------------------|
D)--5-5-5-5-5-5-5-5-5-5-5-5-5-5-5-5--7-7-7-7-7-7-7-7-7-7-7-7-7-7-7-7--|
A)--5-5-5-5-5-5-5-5-5-5-5-5-5-5-5-5--7-7-7-7-7-7-7-7-7-7-7-7-7-7-7-7--|
E)--3-3-3-3-3-3-3-3-3-3-3-3-3-3-3-3--5-5-5-5-5-5-5-5-5-5-5-5-5-5-5-5--|


  CHORUS
E)----------------------------------------------------------------------------|
B)----------------------------------------------------------------------------|
G)----------------------------------------------------------------------------|
D)--7-7-10-10-7-7-10-10-7-7-7-7-7-7-7-7--7-7-10-10-7-7-10-10-7-7-7-7-7-7-7-7--|
A)--7-7-10-10-7-7-10-10-7-7-7-7-7-7-7-7--7-7-10-10-7-7-10-10-7-7-7-7-7-7-7-7--|
E)--5-5--8--8-5-5--8--8-5-5-5-5-5-5-5-5--5-5-8--8--5-5-8--8--5-5-5-5-5-5-5-5--|

E)--------------------------------------------------------------------|
B)--------------------------------------------------------------------|
G)--------------------------------------------------------------------|
D)--5-5-5-5-5-5-5-5-5-5-5-5-5-5-5-5--7-7-7-7-7-7-7-7-7-7-7-7-7-7-7-7--|
A)--5-5-5-5-5-5-5-5-5-5-5-5-5-5-5-5--7-7-7-7-7-7-7-7-7-7-7-7-7-7-7-7--|
E)--3-3-3-3-3-3-3-3-3-3-3-3-3-3-3-3--5-5-5-5-5-5-5-5-5-5-5-5-5-5-5-5--|

E)----------------------------------------------------------------------------|
B)----------------------------------------------------------------------------|
G)----------------------------------------------------------------------------|
D)--7-7-7-7-7-7-7-7-7-7-7-7-10-10-10-10--7-7-7-7-7-7-7-7-7-7-7-7-10-10-10-10--|
A)--7-7-7-7-7-7-7-7-7-7-7-7-10-10-10-10--7-7-7-7-7-7-7-7-7-7-7-7-10-10-10-10--|
E)--5-5-5-5-5-5-5-5-5-5-5-5-8--8--8--8---5-5-5-5-5-5-5-5-5-5-5-5-8--8--8--8---|

E)--------------------------------------------------------------------|
B)--------------------------------------------------------------------|
G)--------------------------------------------------------------------|
D)--5-5-5-5-5-5-5-5-5-5-5-5-5-5-5-5--7-7-7-7-7-7-7-7-7-7-7-7-7-7-7-7--|
A)--5-5-5-5-5-5-5-5-5-5-5-5-5-5-5-5--7-7-7-7-7-7-7-7-7-7-7-7-7-7-7-7--|
E)--3-3-3-3-3-3-3-3-3-3-3-3-3-3-3-3--5-5-5-5-5-5-5-5-5-5-5-5-5-5-5-5--|

[ Tab from: http://www.guitartabs.cc/tabs/m/murderdolls/197666_tab_ver_5.html ]
  SOLO  (1st guitar)
E)------------------------------------------------------------------------------|
B)--10---15-15-15-15-13-13-13-13-X-8--8---15-15-15-15-13-13-13-13-X-8-8--8------|
G)------------------------------------------------------------------------------|
D)------------------------------------------------------------------------------|
A)------------------------------------------------------------------------------|
E)------------------------------------------------------------------------------|

E)-----------------------------------------------------9/12--|
B)--15-15-15-15-13-13-13-13-X-10-10---10-10-12^-12^-10-------|
G)----------------------------------12-----------------------|
D)-----------------------------------------------------------|
A)-----------------------------------------------------------|
E)-----------------------------------------------------------|

E)--12-12-17-15-12-12-17-15-12-12-17-15-12-12/--12-12-17-15-12-12-17-15-12-12-17-15-15-12-|
B)----------------------------------------------------------------------------------------|
G)----------------------------------------------------------------------------------------|
D)----------------------------------------------------------------------------------------|
A)----------------------------------------------------------------------------------------|
E)----------------------------------------------------------------------------------------|

E)--X-21^---21^-21^p19-17--|
B)-------------------------|
G)-------------------------|
D)-------------------------|
A)-------------------------|
E)-------------------------|

   (2nd guitar)
E)------------------------------------------------------------------------------------|
B)------------------------------------------------------------------------------------|
G)------------------------------------------------------------------------------------|
D)--7-7-7-7-7-7-7-7-7-7-7-7-7-7-7-7--10-10-10-10-10-10-10-10-10-10-10-10-10-10-10-10--|
A)--7-7-7-7-7-7-7-7-7-7-7-7-7-7-7-7--10-10-10-10-10-10-10-10-10-10-10-10-10-10-10-10--|
E)--5-5-5-5-5-5-5-5-5-5-5-5-5-5-5-5--8--8--8--8--8--8--8--8--8--8--8--8--8--8--8--8---|

E)--------------------------------------------------------------------|
B)--------------------------------------------------------------------|
G)--------------------------------------------------------------------|    X2
D)--5-5-5-5-5-5-5-5-5-5-5-5-5-5-5-5--7-7-7-7-7-7-7-7-7-7-7-7-7-7-7-7--|
A)--5-5-5-5-5-5-5-5-5-5-5-5-5-5-5-5--7-7-7-7-7-7-7-7-7-7-7-7-7-7-7-7--|
E)--3-3-3-3-3-3-3-3-3-3-3-3-3-3-3-3--5-5-5-5-5-5-5-5-5-5-5-5-5-5-5-5--|


  OUTRO
E)----------------------------------------------------------------------------|
B)----------------------------------------------------------------------------|
G)----------------------------------------------------------------------------|
D)--7-7-10-10-7-7-10-10-7-7-7-7-7-7-7-7--7-7-10-10-7-7-10-10-7-7-7-7-7-7-7-7--|
A)--7-7-10-10-7-7-10-10-7-7-7-7-7-7-7-7--7-7-10-10-7-7-10-10-7-7-7-7-7-7-7-7--|
E)--5-5--8--8-5-5--8--8-5-5-5-5-5-5-5-5--5-5-8--8--5-5-8--8--5-5-5-5-5-5-5-5--|

E)---------------------------------------------------------------------|
B)---------------------------------------------------------------------|
G)---------------------------------------------------------------------|
D)--7-7-10-10-7-7-10-10-7-7-7-7-7-7-7-7--7-7-10-10-7-7-10-10-7-7-7-7/--|
A)--7-7-10-10-7-7-10-10-7-7-7-7-7-7-7-7--7-7-10-10-7-7-10-10-7-7-7-7/--|
E)--5-5--8--8-5-5--8--8-5-5-5-5-5-5-5-5--5-5-8--8--5-5-8--8--5-5-5-5/--|
                                                             . . .


STRUCTURE:

INTRO
VERSE
CHORUS
INTRO
VERSE
CHORUS
SOLO
CHORUS
OUTRO

        ENJOY!!
Comments