Murderdolls - 197666 Chords & Tabs

 

197666 Chords & Tabs

Murderdolls Chords & Tabs

Version: 3 Type: Tab 0 ratings
1 star 2 stars 3 stars 4 stars 5 stars
comments

197666 Tab

Tuning - Standard (EADGBE)        197666 - (BASIC TUNE)

E--5///-5///---3-5555555555555555--
A--7///-7///-3-5-7777777777777777--
D------------5--- |_____PM______|--    x1 - INTRO/VERSE.  THEN...
G----------------------------------
B----------------------------------
E----------------------------------

E--5555555555555555----------33333333-5555555555555555--
A--7777777777777777-33333333-55555555-7777777777777777--
D-------------------55555555----------------------------    x1 - VERSE.
G-------------------------------------------------------
B-------------------------------------------------------
E-------------------------------------------------------

E------------------                  E------------------
A------------------                  A------------------
D--77----77----7~--  x2 (after the   D--7~~5--7~~5~7~~--x1 - BRIDGE.
G-----55----55-----      2nd time,   G------55----------
B------------------      do this..)  B------------------
E------------------                  E------------------

E--555555555555----555555555555----3~~~3-55555555--
A--------------3~3~------------3~3~----------------
D--------------------------------------------------  x1 - CHORUS.
G--------------------------------------------------
B--------------------------------------------------
E--------------------------------------------------

E--5///-5///---3-5555555555555555--
A--7///-7///-3-5-7777777777777777--
D------------5--- |_____PM______|--    x1 THEN....
G----------------------------------
B----------------------------------
E----------------------------------

E--5555555555555555----------33333333-5555555555555555--
A--7777777777777777-33333333-55555555-7777777777777777--
D-------------------55555555----------------------------    x1 - VERSE.
G-------------------------------------------------------
B-------------------------------------------------------
E-------------------------------------------------------
[ Tab from: http://www.guitartabs.cc/tabs/m/murderdolls/197666_tab_ver_3.html ]
E------------------                  E------------------
A------------------                  A------------------
D--77----77----7~--  x2 (after the   D--7~5~--7757577~--  x1 - BRIDGE
G-----55----55-----      2nd time,   G------55----------
B------------------      do this..)  B------------------
E------------------                  E------------------

E--555555555555----555555555555----3~3333333333-555555555555--
A--------------3~3~------------3~3~---------------------------
D-------------------------------------------------------------  x1 - CHORUS.
G-------------------------------------------------------------
B-------------------------------------------------------------
E-------------------------------------------------------------

E----------------------------------------------------------------------
A----------------------------------------------------------------------
D---------------------------------------------------------------------- Solo.
G--14~~~----------1212~~----------1212~~----------1214~14~12141214~14~~
B-------1515151514------1515151514------1515151514---------------------
E----------------------------------------------------------------------.....

B--15----1715--1715~-15~~----1715----1715~-------------------
E----1715--1715----------1715----1715------21~~~2121-1917~~--

E------------------                  E------------------
A------------------                  A------------------
D--77----77----7~--  x2 (after the   D--7~5~--7757577~--  x1 - BRIDGE
G-----55----55-----      2nd time,   G------55----------
B------------------      do this..)  B------------------
E------------------                  E------------------

E--555555555555----555555555555----3~3333333333-555555555555--
A--------------3~3~------------3~3~---------------------------
D-------------------------------------------------------------  x1 - CHORUS.
G-------------------------------------------------------------
B-------------------------------------------------------------
E-------------------------------------------------------------

E------------------                  
A------------------                  
D--77----77----7~--  x4  ENDING.
G-----55----55-----      
B------------------      
E------------------                


Key :     

// - slide down.  \\ - slide up.

~ - hold/ring.    ^ - bend.
Comments