Murderdolls - 197666 Chords & Tabs

 

197666 Chords & Tabs

Murderdolls Chords & Tabs

Version: 1 Type: Tab 0 ratings
1 star 2 stars 3 stars 4 stars 5 stars
comments

197666 Tab

E-----------------------------------------------------------------------------
B-----------------------------------------------------------------------------
G------------------5-------PMx8--------------------------5x8------------------
D---7-------7------5--5----7-------------------7x8--7x8--5----5x16--7x8--7x8--
A---7-------7------3--5----7-------------------7----7----3----5-----7----7----
E---5-------5---------3----5--PICKSLIDE--------5----8---------3-----5----5----


E-----------------------------------------------------------------------------
B-----------------------------------------------------------------------------
G-------------------------------5x4--------5x4------------------19--17--19--17
D-7-7-10-7-7-10-7-5---7---7x12--5----7x12--5----5x16--7x16------------19------19
A-------------------------7-----3----7-----3----5-----7-----7x32--------------
E-------------------------5----------5----------3-----5-----------------------

[ Tab from: http://www.guitartabs.cc/tabs/m/murderdolls/197666_tab.html ]
E-----------------------------------------------------------------------------
B--------------------5--------------------------------------------------------
G-7-7--10-7-7-10-7-5--7--------5x4--------5x4--------------19-19-19-17-17-----
D------------------------7x12--5----7x12--5----5x16-----19-----------------17-17
A------------------------7-----3----7-----3----5-------------------------19---
E------------------------5----------5----------3------------------------------

E---------------------------------------------------------20-17-----20-17-----
B----------------------------------------------------17-17-----20-17-----20-17
G-19-19-19-17-17------19-19-19-17-17------------------------------------------
D------------------17---------------19-19-17--19-19---------------------------
A----------------19-----------------------------------------------------------
E-----------------------------------------------------------------------------


E-20---20---20---17-----------------------------------------------------------
B-----------------------------------------------------------------------------
G------------------------------------------5----------------------------------
D--------------------7-7-10-7-7-10-7x2--5-----7-------------------------------
A-----------------------------------------------------------------------------
E-----------------------------------------------------------------------------
Comments