Murder City Devils - I Want A Lot Now Chords & Tabs

 

I Want A Lot Now Chords & Tabs

Murder City Devils Chords & Tabs

Version: 1 Type: Tab 0 ratings
1 star 2 stars 3 stars 4 stars 5 stars
comments

I Want A Lot Now Tab

   
-------------------------------------------------------------------------------
			     MURDER CITY DEVILS - I Want A Lot Now
-------------------------------------------------------------------------------
Tabbed by:Kyle doyle
Email: fukkindoyle_skateordie@hotmail.com



This is a fucking sick song. It's also my first tab, probably have a lot of shit wrong
but I couldn't find this tab anywhere else so why not give er' a go eh? Fuck yeah. Good
song. Makes me horny. Enjoy. This song basically repeats itself over about 3 or 4 times,
it's really fun to paly though, really easy too.

                 intro
     (0:09)                   second guitar comes through at 0:20 (also playing those
notes one fret higher)
|----------------------------|---------------------------|
|----------------------------|---------------------------|
|----------------------------|---------------------------|
|--7---10-7---5-7---10-7---5-|-7---10-7---5-7---10-7---5-|
|--7---10-7---5-7---10-7---5-|-7---10-7---5-7---10-7---5-|
|--5----8-5---3-5----8-5---3-|-5----8-5---3-5----8-5---3-|

               pre chorus
    (0:29)
|--------------------------------------|
|--------------------------------------|
|--------------------------------------|
|--------------------------------------|
|--10-8-10/8-10-8-6---10-8-10/8-10-8-6-|
|-8------------------8-----------------|

             chorus
    (0:34)
|---------------------------|
|---------------------------|
|---------------------------|
|-77777777-8-7-77777777-8-7-|
|-77777777-8-7-77777777-8-7-|  play this again while the other guitar plays the pre chorus
|-55555555-6-5-55555555-6-5-|


             verse
    (0:43)
|---------------------------|
|---------------------------|
|---------------------------|
|-77777777-8-7-77777777-8-7-|
|-77777777-8-7-77777777-8-7-|  x5
|-55555555-6-5-55555555-6-5-|
  pm......     ........

[ Tab from: http://www.guitartabs.cc/tabs/m/murder_city_devils/i_want_a_lot_now_tab.html ]
               chorus 1
    (1:07)
|--------------------------------------|
|--------------------------------------|
|--------------------------------------|
|--------------------------------------|
|--10-8-10/8-10-8-6---10-8-10/8-10-8-6-|
|-8------------------8-----------------|

             chorus 2
    (1:12)
|---------------------------|
|---------------------------|
|---------------------------|
|-77777777-8-7-77777777-8-7-|
|-77777777-8-7-77777777-8-7-|  play this again while the other guitar plays the pre chorus
|-55555555-6-5-55555555-6-5-|


             verse
    (1:22)
|---------------------------|
|---------------------------|
|---------------------------|
|-77777777-8-7-77777777-8-7-|
|-77777777-8-7-77777777-8-7-|  x5
|-55555555-6-5-55555555-6-5-|
  pm......     ........

               chorus 1
    (1:46)
|--------------------------------------|
|--------------------------------------|
|--------------------------------------|
|--------------------------------------|
|--10-8-10/8-10-8-6---10-8-10/8-10-8-6-|
|-8------------------8-----------------|

             chorus 2
    (1:51)
|---------------------------|
|---------------------------|
|---------------------------|
|-77777777-8-7-77777777-8-7-|
|-77777777-8-7-77777777-8-7-|  play this again while the other guitar plays the pre chorus
|-55555555-6-5-55555555-6-5-|


             verse
    (2:01)
|--------------|
|--------------|
|--------------|
|-77777777-8-7-|
|-77777777-8-7-| 
|-55555555-6-5-|
  pm......     


             some ring noise shit
    (2:18)
|----|
|----|
|----|
|-17-|  x34 then let it ring
|----|
|----|


               chorus 1
    (2:25)
|--------------------------------------|
|--------------------------------------|
|--------------------------------------|
|--------------------------------------|
|--10-8-10/8-10-8-6---10-8-10/8-10-8-6-| x4 
|-8------------------8-----------------|
quietly with one guitar then 7 more times loudly or distorded with both guitars
    -and that ends the song.

  
e-mail me with corrections or questions or whatever else you want. fukkindoyle_skateordie@hotmail.com


| /  slide up
| \  slide down
| h  hammer-on
| p  pull-off
| ~  vibrato
| +  harmonic
| x  Mute note
===============================================================================
Comments