Mungo Jerry - In The Summertime Chords & Tabs

 

In The Summertime Chords & Tabs

Mungo Jerry Chords & Tabs

Version: 1 Type: Tab 0 ratings
1 star 2 stars 3 stars 4 stars 5 stars
comments

In The Summertime Tab

Mungo Jerry - In the Summertime


Intro

 0:00                         0:03
e--0--0----------------------|--0--0----------------------
B-------2p0-2p0----------0h2-|-------2p0-2p0--------------
G---------------0h1----------|---------------0h1----------
D-------------------2--------|-------------------2--------
A----------------------------|----------------------------
E----------------------------|----------------------------

 0:06                         0:09
e--2--0-----2p0---2p0----2---|--4--4---4p3--4-------------
B--------2------2-----2------|--5--5---0----0-------------
G----------------------------|----------------------------
D----------------------------|----------------------------
A----------------------------|----------------------------
E----------------------------|----------------------------

0:12                          0:15
e--7--9--2--7----5-----------|--0--0----------------------
B------------5--------5------|--------2p0-2p0---------0h2-
G----------------------------|----------------0h1---------
D----------------------------|--------------------2-------
A----------------------------|----------------------------
E----------------------------|----------------------------

Verse

 0:17                         0:20
e--0--0----------------------|--0--0----------------------
B-------2p0-2p0----------0h2-|--------2p0-2p0-------------
G---------------0h1----------|----------------0h1---------
D-------------------2--------|--------------------2-------
A----------------------------|----------------------------
E----------------------------|----------------------------

 0:23                         0:27
e--2--0------2p0---2p0----2--|--0--0----------------------
B--------2-------2-----2-----|--------2p0-2p0-------------
G----------------------------|----------------0h1---------
D----------------------------|--------------------2-------
A----------------------------|----------------------------
E----------------------------|----------------------------

 0:29                         0:32
e--2---4-------2---0---------|--0--0----------------------
B----------4-------0---2-----|--------2p0-2p0---------0h2-
G----------------------------|----------------0h1---------
D----------------------------|--------------------2-------
A----------------------------|----------------------------
E----------------------------|----------------------------

 0:35                         0:38
e--0--0----------------------|--0--0----------------------
B-------2p0-2p0----------0h2-|--------2p0-2p0-------------
G---------------0h1----------|----------------0h1---------
D-------------------2--------|--------------------2-------
A----------------------------|----------------------------
E----------------------------|----------------------------

 0:41                         0:44
e--2--0------2p0---2p0----2--|--0--0----------------------
B--------2-------2-----2-----|--------2p0-2p0-------------
G----------------------------|----------------0h1---------
D----------------------------|--------------------2-------
A----------------------------|----------------------------
E----------------------------|----------------------------

 0:47                         0:50                       
e--2---4------2----0----2----|--0--0----------------------
B---------2-----2--0---------|-------2p0-2p0----------0h2-
G----------------------------|---------------0h1----------
D----------------------------|-------------------2--------
A----------------------------|----------------------------
E----------------------------|----------------------------

 0:52                         0:55 
e--0--0----------------------|--0--0----------------------
B-------2p0-2p0------0---0h2-|-------2p0-2p0--------------
G---------------0h1----------|---------------0h1----------
D----------------------------|-------------------2--------
A----------------------------|----------------------------
E----------------------------|----------------------------
[ Tab from: http://www.guitartabs.cc/tabs/m/mungo_jerry/in_the_summertime_tab.html ]
 0:58                         1:01
e--2--0------2p0---2p0----2--|--0--0----------------------
B--------2-------2-----2-----|--------2p0-2p0-------------
G----------------------------|----------------0h1---------
D----------------------------|--------------------2-------
A----------------------------|----------------------------
E----------------------------|----------------------------

 1:04                         1:07
e--2--4------5-----0---------|--0--0----------------------
B--------4---7p5---0-----2---|--------2p0-2p0---------0h2-
G----------------------------|----------------0h1---------
D----------------------------|--------------------2-------
A----------------------------|----------------------------
E----------------------------|----------------------------


 1:10                         1:12
e--0--0----------------------|--0--0----------------------
B--------2p0-2p0---0-----0h2-|--------2p0-2p0-------------
G----------------1-----------|----------------0h1---------
D----------------------------|--------------------2-------
A----------------------------|----------------------------
E----------------------------|----------------------------

 1:15                         1:18
e--2--0------2p0---2p0----2--|--0--0----------------------
B--------2-------2-----2-----|-------2p0-2p0--------------
G----------------------------|---------------0h1----------
D----------------------------|-------------------2--------
A----------------------------|----------------------------
E----------------------------|----------------------------

 1:21                         1:24
e--2--4-----2----0-----------|--0--0----------------------
B--------4----2------0-------|-------2p0-2p0----------0h2-
G----------------------------|---------------0h1----------
D----------------------------|-------------------2--------
A----------------------------|----------------------------
E----------------------------|----------------------------

Piano Solo

 1:27                         1:30
e--0--0----------------------|--0--0----------------------
B-------2p0-2p0------0---0h2-|-------2p0-2p0--------------
G---------------0h1----------|---------------0h1----------
D----------------------------|-------------------2--------
A----------------------------|----------------------------
E----------------------------|----------------------------

 1:33                         1:36
e--2--0------2p0---2p0----2--|--0--0----------------------
B--------2-------2-----2-----|-------2p0-2p0--------------
G----------------------------|---------------0h1----------
D----------------------------|-------------------2--------
A----------------------------|----------------------------
E----------------------------|----------------------------

 1:39                         1:41
e--2--4-----2----0-----------|--0--0----------------------
B--------4----2-------2------|-------2p0-2p0----------0h2-
G----------------------------|---------------0h1----------
D----------------------------|-------------------2--------
A----------------------------|----------------------------
E----------------------------|----------------------------

1:44                          1:47 
e--0--0----------------------|--0--0----------------------
B-------2p0-2p0----------0h2-|-------2p0-2p0--------------
G---------------0h1----------|---------------0h1----------
D-------------------2--------|-------------------2--------
A----------------------------|----------------------------
E----------------------------|----------------------------

 1:50                         1:53
e--2--0-----2p0----7---7-7---|--0--0----------------------
B--------2------2--5---5-5---|-------2p0-2p0--------------
G----------------------------|---------------0h1----------
D----------------------------|-------------------2--------
A----------------------------|----------------------------
E----------------------------|----------------------------

 1:56                         1:59 
e--2--4--4--2----5-----5-----|--0--0-----------0-0---0-0--
B-------------2-----5--------|-------2--0--2--------------
G----------------------------|----------------------------
D----------------------------|----------------------------
A----------------------------|----------------------------
E----------------------------|----------------------------



The solo is just like the Intro 
It's a very repetitive song

Tabbed by Spencer  Cutlip 2005
Comments