Mumford And Sons - Dustbowl Dance Chords & Tabs

 

Dustbowl Dance Chords & Tabs

Mumford And Sons Chords & Tabs

Version: 1 Type: Tab 0 ratings
1 star 2 stars 3 stars 4 stars 5 stars
comments

Dustbowl Dance Tab

   
                           Mumford and Sons
                            Dustbowl Dance
Capo 3rd Fret

Intro: Am F G C Dm C Dm


Verse
Am          F             G           C
A young man stands on the edge of his porch,
Dm             C              Dm         G
The days where short, and the father was gone,
Am                      F        G             C
There was no-one in the town and no-one in the field,
     Dm           C              Dm           G
This dusty barren land had given all it could yield.

Solo:
|---------------11-------11-------11-------11------------6-----6--------------|
|------------13-------13-------13-------13----8---------9-----9-----8---------|
|--\12-12-12-------12-------12-------12-------------8-----8-----8--------8----|
|-----------------------------------------------8h10-----------------8h10-----|
|-----------------------------------------------------------------------------|
|-----------------------------------------------------------------------------|

|-----6-----6-----6-----6--------------------------------------------------|
|---9-----9-----9-----9----------------------------------------------------|
|-------8-----8-----8-----8------------------------------------------------|
|--------------------------------------------------------------------------|
|--------------------------------------------------------------------------|
|--------------------------------------------------------------------------|
[ Tab from: http://www.guitartabs.cc/tabs/m/mumford_and_sons/dustbowl_dance_tab.html ]
Am                      F           G         C
I've been kicked off my land at the age of sixteen,
Dm            C               Dm                  G
And I have no idea where else my heart could have been,
Am              F           G             C
I placed all my trust at the foot of this hill,
Dm           C                 Dm       G
And now I am sure my heart can never be still,
Am              F           G             C
So collect your courage and collect your horse,
Dm           C                 Dm           G
And pray you never feel this same kind of remorse.

Solo x2

Chorus:
Am      F         G        C
Seal my heart and break my pride,
Dm                 C           Dm         G
I have no where to stand, and no where to hide,
Am       F         G        C
Align my heart, my body, my mind,
   Dm             C     Dm        G
to face what I've done, and do my time.

Am   F  G  C  Dm  C  Dm  G x2

Verse (same Chords)
Well you are my accuser, now look in my face,
Your opression reeks of your greed and disgrace,
So one man has and another has not,
How can you love what it is you have got,
When you took it all from the weak hands of the poor?
Liars and thieves you know not what is in store.

There will come a time I will look in your eye,
You will pray to the God that you always denied,
The I'll go out back and I'll get my gun,
I'll say, "You haven't met me, I am the only son".


Am   F  G  C  Dm  C  Dm  G

Chorus

Play this part fast. Each chord only gets one strum
Am F G C Dm C Dm G x4

Chorus

Am F G C Dm C Dm G x8

Verse (softly)
Well yes sir, yes sir, yes it was me,
I know what I've done, cause I know what I've seen,
I went out back and I got my gun,
I said, "You haven't met me, I am the only son".

I'm Pretty Sure most of this is correct
Enjoy
Comments