Mumford And Sons - Broken Crown Chords & Tabs

 

Broken Crown Chords & Tabs

Mumford And Sons Chords & Tabs

Version: 2 Type: Tab 0 ratings
1 star 2 stars 3 stars 4 stars 5 stars
comments

Broken Crown Tab

Mumford and Sons--Broken Crown
Tuning: DADFAD

D|------------------------------------------------------------0--|
A|---------------------------------------------------------------|
F|--12--14--16----11--12--14----9---12-11-9--7----2--4--5--2--0--|
D|---------------------------------------------------------------|
A|---------------------------------------------------------------|
D|--12--12--12----10--10--10----8---8--8--8--7----2--3--5--2--0--|

D|--------------------------------------------------|
A|--------------------------------------------------|
F|----12------11---------16---14--12----------------|
D|----0-------0-------------------0-----------------|x2
A|----0-------0-------------------0-----------------|
D|----12------10---------15---14--12----------------|

D|------------------------------0-------------|
A|---------1--------------------0-------------|
F|---------0--------------------0-------------|
D|---------0--------------------0-------------|
A|---------0--------------------0-------------|X2
D|---------3--------------------0-------------|

D|------------------------------------------------------------0--|
A|---------------------------------------------------------------|
F|--12--14--16----11--12--14----9---12-11-9--7----2--4--5--2--0--|
D|---------------------------------------------------------------|
A|---------------------------------------------------------------|
D|--12--12--12----10--10--10----8---8--8--8--7----2--3--5--2--0--|



D|--------------------------------------------------|
A|--------------------------------------------------|
F|----12------11---------16---14--12----------------|
D|----0-------0-------------------0-----------------|x2
A|----0-------0-------------------0-----------------|
D|----12------10---------15---14--12----------------|

D|------------------------------0-------------|
A|---------1--------------------0-------------|
F|---------0--------------------0-------------|
D|---------0--------------------0-------------|
A|---------0--------------------0-------------|X2
D|---------3--------------------0-------------|


D|---------------------------------------------------------------|
A|---------------------------------------------------------------|
F|--12--14--16----11--12--14----9---12-11-8--7----2--4--5--2--0--|
D|--0---0---0-----0---0---0-----0---0--0--0--0----0--0--0--0--0--|
A|--0---0---0-----0---0---0-----0---0--0--0--0----0--0--0--0--0--|
D|--12--12--12----10--10--10----8---8--8--8--7----2--3--5--2--0--|
[ Tab from: http://www.guitartabs.cc/tabs/m/mumford_and_sons/broken_crown_tab_ver_2.html ]
D |-----------------------------------------------0---------|
A |-----------------------------------------------0---------|
F |--12--11--8-----7---------5---4---2---4---2----0---------|
D |----------------0---------0---0---0---0---0----0---------|
A |----------------0---------0---0---0---0---0----0---------|
D |--12--10--9-----7---------5---3---2---3---2----0---------|
D |--------------------------------------------------|
A |--------------------------------------------------|
F |----4---2---4----2----4------7---4---0--5---------|
D |----0---0---0----0----0------0---0---0--0---------|
A |----0---0---0----0----0------0---0---0--0---------|
D |----3---2---3----2----3------7---3---0--5---------|

STRUMMING---

D|---------------------------------------------------------------|
A|---------------------------------------------------------------|
F|--12--14--16----11--12--14----9---12-11-8--7----2--4--5--2--0--|
D|--0---0---0-----0---0---0-----0---0--0--0--0----0--0--0--0--0--|
A|--0---0---0-----0---0---0-----0---0--0--0--0----0--0--0--0--0--|
D|--12--12--12----10--10--10----8---8--8--8--7----2--3--5--2--0--|
Play this part twice
D|--------------------------------------------------|
A|--------------------------------------------------|
F|----12--------11-------------16---14--12----------|
D|----0---------0--------------0----0---0-----------|
A|----0---------0--------------0----0---0-----------|
D|----12--------10-------------15---14--12----------|

D|------------------------------0-------------|
A|---------1--------------------0-------------|
F|---------0--------------------0-------------|
D|---------0--------------------0-------------|
A|---------0--------------------0-------------|
D|---------3--------------------0-------------|

Instrumental:
D|----------------------------|
A|----------------------------|
F|--5--7--4--2--0-------------|x2
D|--0--0--0--0--0-------------|
A|--0--0--0--0--0-------------|
D|--5--7--3--2--0-------------|

D|-----------------------------------|
A|-----------------------------------|
F|--5--7--4--2--5--2--2--4--5--2--0--|
D|--0--0--0--0--0--0--0--0--0--0--0--|
A|--0--0--0--0--0--0--0--0--0--0--0--|
D|--5--7--3--2--5--2--2--3--5--2--0--|

Picking outro:
D|--------------------------------------------------|
A|--------------------------------------------------|
F|----12--------11-------------16---14--12----------|
D|----0---------0-----------------------0-----------|
A|----0---------0-----------------------0-----------|
D|----12--------10-------------15---14--12----------|
        
e|------------------------------0-------------|
A|---------1--------------------0-------------|
F|---------0--------------------0-------------|
D|---------0--------------------0-------------|
A|---------0--------------------0-------------|
D|---------3--------------------0-------------|
Comments