Mumford And Sons - After The Storm Chords & Tabs

 

After The Storm Chords & Tabs

Mumford And Sons Chords & Tabs

Version: 2 Type: Tab 0 ratings
1 star 2 stars 3 stars 4 stars 5 stars
comments

After The Storm Tab

   
Love this tune.  Building off of what franksta posted, just some other things I heard.

Intro
e|----|
B|----|
G|-4--| 
D|-0--|
A|----|
E|-3--|

Verse
e|--------------:||     -----------------------------------------|
B|--------------:||     -----------------------------------------|
G|-4--5--2--4---:||     -7--5--9--12--11--12--11--14--16--12--11-| 
D|-0--0--0--0---:||     -----------------------------------------|
A|--------------:||     -----------------------------------------|
E|-3--5--2--3---:||     -7--5--8--12--10--12--10--14--15--12--10-|
[ Tab from: http://www.guitartabs.cc/tabs/m/mumford_and_sons/after_the_storm_tab_ver_2.html ]
Pre-Chorus
e|---------------0-------------:||
B|---------------0-----1-------:||
G|--4--5--4--2---0-----0---0---:|| 
D|--0--0--0--0---2-----2---0---:||
A|---------------2-----3---2---:||
E|--3--5--3--2---0---------3---:||
                 Em    C   G

Chorus
e|--------------:||
B|--1---0---0---:||
G|--0---0---0---:||
D|--2---2---0---:||
A|--3---2---2---:||
E|------0---3---:||
    C   Em  G

Transition to next Verse
e|--------------:||
B|----------3---:||
G|-4--5--2--4---:||
D|-0--0--0--0---:||
A|--------------:||
E|-3--5--2--3---:||

End/Outro
e|------2----0-----------------|
B|-------------------------3---|
G|-0----0----0---5--4--2---4---| 
D|-0----0----0---0--0--0---0---|
A|-----------------------------|
E|-3----3----3---5--3--2---3---|
   G  Gmaj7  G6  
Comments