Muffs - Lucky Guy Chords & Tabs

 

Lucky Guy Chords & Tabs

Muffs Chords & Tabs

Version: 1 Type: Tab

Lucky Guy Tab

Lucky Guy - The Muffs

Intro/Chorus
e|-----------------------|
b|-----------------------|
g|--4--3--------------4--|
d|--4--3--6--4--2--5--4--|
a|--2--1--6--4--2--5--2--|
E|--------4--2--0--3-----|
[ Tab from: http://www.guitartabs.cc/tabs/m/muffs/lucky_guy_tab.html ]
Verse
e|--------------|---------------------------|
b|--------------|---------------------------|
g|--4--------4--|--9--12-----9--12------11--|
d|--4--6--4--4--|--9--12--9--9--12--11--11--|
a|--2--6--4--2--|--7--10--9--7--10--11---9--|
E|-----4--2-----|---------7----------9------|