Muffs - Kids In America Chords & Tabs

 

Kids In America Chords & Tabs

Muffs Chords & Tabs

Version: 1 Type: Tab

Kids In America Tab

Kids in America - the muffs

Riff 1 w/pm
e|-----------------|
b|-----------------|
g|--------------8--|
d|--8--6--4--6--8--|
a|--8--6--4--6--6--|
E|--6--4--2--4-----|
[ Tab from: http://www.guitartabs.cc/tabs/m/muffs/kids_in_america_tab.html ]
Riff 2
e|-----------------|
b|-----------------|
g|--------------8--|
d|--8--6--4--6--8--|
a|--8--6--4--6--6--|
E|--6--4--2--4-----|


Riff 3
e|---------|
b|---------|
g|--8--10--|
d|--8--10--|
a|--6---8--|
E|---------|

Riff 4
e|-----------------------------|
b|-----------------------------|
g|--11------11------11--13-----|
d|--11--11--11--11--11--13--8--|
a|---9--11---9--11---9--11--8--|
E|-------9-------9----------6--|