Mudvayne - World So Cold Chords & Tabs

 

World So Cold Chords & Tabs

Mudvayne Chords & Tabs

Version: 5 Type: Tab 0 ratings
1 star 2 stars 3 stars 4 stars 5 stars
comments

World So Cold Tab

   
Mudvayne
World So Cold
Album: The end of all things to come
Drop C tuning (C, G, C, F, A, D)
(Intro)
D------------------------------------------------------------------|
A------------------------------------------------------------------|
F------------------------------------------------------------------|
C-10101010101010-9-9-9-9-7---9-7-7-7--7-7--7-7--7-7-7-7-7-9-9-9-10-|
G--7-7-7-7-7-7-7-7-7-7-7-7---7-7-7-7--7-7--7-7--7-7-7-7-7-7-7-7--7-|
C--7-7-7-7-7-7-7-7-7-7-7-7---7-7-7-7--7-7--7-7--7-7-7-7-7-7-7-7--7-|
When pas-sion's lost                                                                     
             and all the trust is gone
D----------------------------------------------------------------|
A----------------------------------------------------------------|
F----------------------------------------------------------------|
C-5-5-5-5-5-5-5-5-5-5-5-5-5-5-5---5-5-5-5-5-5-5-5-5-5-7-7-7-7-7--|
G-3-3-3-3-3-3-3-3-3-3-3-3-3-3-3-0-3-3-3-3-3-3-3-3-3-3-5-5-5-5 5--|
C-3-3-3-3-3-3-3-3-3-3-3-3-3-3-3-0-2-2-2-2-2-2-2-2-2-2-5-5-5-5-5--|
way too long,___}                                                                        
       for way too long.____}

(Chorus) (Use heavy distortion)
D-----------------------------------------------------------------|
A-----------------------------------------------------------------|
F------------------5-5-5-5-4-4-4------------------5-5-5-5-4-4-4---|
C-----------------------------------------------------------------|
G-3-3---3-3---3-3--3-3-3-3-2-2-2----3-3--3-3--3-3-3-3-3-3-2-2-2---|
C-3-3---3-3---3-3-------------------3-3--3-3--3-3-----------------|
Fe-ver in-side the storm,_                                                               
       so, I'm turn-ing a-way

D--------------------------------------------------------------------|
A--------------------------------------------------------------------|
F------------------------7-7-7-7-----------------------12/--12-12-12-|
C--------------------------------------------------------------------|
G-0---02/3/2--0-----0---5-5-5-5--0--0-2 /3/2--0---0---10/--10-10-10-|
C-0---02/3/2--0-----0-6----------0--0-2 /3/2--0---0-6---------------|
A-way from the names,                                                           I'm 
mend-ing the wounds of us

D-----------------------------------------------------------------|
A-----------------------------------------------------------------|
F------------------5-5-5-5-4-4-4------------------5-5-5-5-4-4-4---|
C-----------------------------------------------------------------|
G-3-3---3-3---3-3--3-3-3-3-2-2-2----3-3--3-3--3-3-3-3-3-3-2-2-2---|
C-3-3---3-3---3-3-------------------3-3--3-3--3-3-----------------|
Keep your thorns_                                                                        
   cause I'm run        - ing away

D--------------------------------------------------------------------|
A--------------------------------------------------------------------|
F------------------------7-7-7-7-----------------------12/--12-12-12-|
C--------------------------------------------------------------------|
G-0---02/3/2--0-----0---5-5-5-5--0--0-2 /3/2--0---0---10/--10-10-10-|
C-0---02/3/2--0-----0-6----------0--0-2 /3/2--0---0-6---------------|
A-way from the games                                                            the 
of a world so cold


(Back to melody)
D--------------------------------------------------------------------|
A--------------------------------------------------------------------|
F--------------------------------------------------------------------|
C1010101010101010101010-9-9-9-7---9-7-7-7-7-7-7-7-7-7-7-9-9-9-10--5--|
G-7-7-7-7-7-7-7-7-7-7-7-7-7-7-7---7-7-7-7-7-7-7-7-7-7-7-7-7-7-7-0-3--|
C-7-7-7-7-7-7-7-7-7-7-7-7-7-7-7---7-7-7-7-7-7-7-7-7-7-7-7-7-7-7-0-3--|


D----------------------------------------------------------------|
A----------------------------------------------------------------|
F------------------------12-12-12-12-----------------------------|
C----------------------------------------------------------------|
G-0-----02/3/2--0---0---10-10-10-10-----------------------------|
C-0-----02/3/2--0---0-6-----------------------------------------|
Well, I'm flying                                             A-way from the names, away from the games.
[ Tab from: http://www.guitartabs.cc/tabs/m/mudvayne/world_so_cold_tab_ver_5.html ]
D-----------------------------------------------------------------|
A-----------------------------------------------------------------|
F-----------------------------------------------------------------|
C-------------------------------5-5-5--5---5-5-5-5---5-5-5--------|
G-0-0-0----0--0-0-0-0---3-3-3---3-3-3--3---3-3-3-3---3-3-3--------|
C-0-0-0----0--0-0-0-0---3-3-3-0-2-2-2--2---2-2-2-2---2-2-2--------|


D------------------------------------------------------------------|
A------------------------------------------------------------------|
F------------------------------------------------------------------|
C101010---12-12-12---7-7-7--101010--101010--10101010/9-7-7/9--5---|
G-7-7-7---10-10-10---5-5-5---8-8-8---8-8-8---8-8-8-----------------|
C-8-8-8---10-10-10---5-5-5---8-8-8---7-7-7---7-7-7--8/7-5-5/7--3---|

D------------------------------------------------------------------|
A------------------------------------------------------------------|
F----9-9/10-10/12--12----15---15-15--17---17-17---12-12-12---------|
C-5----------------------------------------------------------------|
G-3--7-7/8-8/10---10----13---13-13--15-- 15-15---10-10-10---------|
C-2----------------------------------------------------------------|

D--------------------------------------------------------------------|
A--------------------------------------------------------------------|
F-15----15-15---14---14-14--14---(-10--------------------------------|
C-------------------------------------16xs---------------------------|
G-13----13-13---12---12-12--12----(-8--------------------------------|
C--------------------------------------------------------------------|

D--------------------------------------------------------------------|
A--------------------------------------------------------------------|
F-5------/-14-14-14-14-14-----14-14-14-14-16-16-16-17-16-14----10----|
C-3-------------------------------------------------------------16xs-|
G-3-16xs-/-12-12-12-12-12-----12-12-12-12-14-14-14-15-14-12----8-----|
C-3------------------------------------------------------------------|


                                             P.M.-------------------|
D-------------------------------------------------------------------|
A-------------------------------------------------------------------|
F--------------------------------------5----------------------------|
C--------------------------------------3----------------------------|
G--/7-7-7-7-7--7-7-7-7-9-9-9-10-9-7----312x--5-3-2-3---------------|
C--/7-7-7-7-7--7-7-7-7-9-9-9-10-9-7----3------5-3-2-3---------------|

D--------------------------------------------------------------------|
A-------------------------------------------------------8------------|
F-/14------------------------------------------------5------5--------|
C------10xs------------------------(little solo)--7------------7-----|
G-/12---------/7-7-7-7-7-7-7-7-0-------------------------------------|
C-------------/7-7-7-7-7-7-7-7-0-------------------------------------|

D---------------------------------------------------------------------|
A----------------------------------------8---------------8------------|
F-5-5-5--5----5-5-5-5---5-5-5--------5-------5---------5---5-----5----|
C-3-3-3--3----3-3-3-3---3-3-3---7----------------7---7-------7--7--7--|
G-3-3-3--3----3-3-3-3---3-3-3-----------------------------------------|
C-3-3-3--3----3-3-3-3---3-3-3-----------------------------------------|

D----------------------------------------------------------------------|
A----------------------------------------------------------------------|
F----------------------------------------5-5-5----5-----5-5-5-5--5-----|
C10-10-10------10----10-10-9-9---9-7-7---3-3-3----3-----3-3-3-3--3-----|
G-7-7--7--------7-----7-7--7-7---7-7-7---3-3-3----3-----3-3-3-3--3-3x--|
C-7-7--7--------7-----7-7--7-7---7-7-7---3-3-3----3-----3-3-3-3--3-----|

D---------------------------------------------------------------------|
A---------------------------------------------------------------------|
F------------------7--------------------------------------------------|
C101010--101010-------------------------------------------------------|
G-7-7-7---7-7-70---5--------------------------------------------------|
C-7-7-7---7-7-70------------------------------------------------------|

That's it!
I'm 100% sure that its right listen to the song with the tab and you will be able to play it.

Let me help you tie the rope around your neck DIG!!
Any comments or questions e-mail me at Skaloser4eva@netscape.net
Comments