Mudvayne - World So Cold Chords & Tabs

 

World So Cold Chords & Tabs

Mudvayne Chords & Tabs

Version: 4 Type: Tab 0 ratings
1 star 2 stars 3 stars 4 stars 5 stars
comments

World So Cold Tab

   
Artist: Mudvayne
Song: World So Cold (from the album The End Of All Things To Come)
Tuning: C,G,C,F,A,D (low to high)
r- repeat

Intro/Verse: (Clean)
|-----------------------------------------------------------------------|
|-----------------------------------------------------------------------|
|-----------------------------------------------------------------------|
|-10-10-10-10-10-10-10-10-10-10-9-9-9-9-7-9-7-7-7-7-7-7-7-7-7-7-7-9-9-9-|
|--0--0--0--0--0--0--0--0--0--0-0-0-0-0-0-0-0-0-0-0-0-0-0-0-0-0-0-0-0-0-|
|-----------------------------------------------------------------------|

|-----------------------------------------------------------------------|
|-----------------------------------------------------------------------|
|-----------------------------------------------------------------------|
|-10-10-5-5-5-5-5-5-5-5-5-5-5-5-5-5-5-5-5-5-5-5-5-5-5-5-5-5-5-5-7-7-7-7-|
|--0--0-3-3-3-3-3-3-3-3-3-3-3-3-3-3-3-0-3-3-3-3-3-3-3-3-3-3-3-3-5-5-5-5-|
|-------3-3-3-3-3-3-3-3-3-3-3-3-3-3-3-0-2-2-2-2-2-2-2-2-2-2-2-2-5-5-5-5-|

Chorus: (Distorted)
|-----------------------------------------------------|
|-----------------------------------------------------|
|---------------5-5-5-5\4-4---------------5-5-5-5\4-4-|
|-3-3--3-3--3-3-X-X-X-X-X-X-3-3--3-3--3-3-X-X-X-X-X-X-|
|-3-3--3-3--3-3-3-3-3-3\2-2-3-3--3-3--3-3-3-3-3-3\2-2-|
|-3-3--3-3--3-3-------------3-3--3-3--3-3-------------|

|--------------------------------------------------|
|--------------------------------------------------|
|------------------7-7-7------------------12-12-12-|
|------------------X-X-X-------------------X--X--X-|
|-0--0-2-3-2-0--/6-5-5-5-0--0-2-3-2-0--/6-10-10-10-|
|-0--0-2-3-2-0--/6-------0--0-2-3-2-0--/6----------|

Chorus fill: (Clean)
|-----------------------------------------------------------------------|
|-----------------------------------------------------------------------|
|-----------------------------------------------------------------------|
|-10-10-10-10-10-10-10-10-10-10-9-9-9-9-7-9-7-7-7-7-7-7-7-7-7-7-7-9-9-9-|
|--0--0--0--0--0--0--0--0--0--0-0-0-0-0-0-0-0-0-0-0-0-0-0-0-0-0-0-0-0-0-|
|-----------------------------------------------------------------------|
[ Tab from: http://www.guitartabs.cc/tabs/m/mudvayne/world_so_cold_tab_ver_4.html ]
Verse 2: (Distorted)
|---------------------------------------------------------------------|
|---------------------------------------------------------------------|
|---------------------------------------------------------------------|
|-0-0-0-r-0--0-0-0-0--3-3-3-0-10-10-10-r-10--10-10-10-10--10-10-10-10-|
|-0-0-0-r-0--0-0-0-0--3-3-3-0-10-10-10-r-10--10-10-10-10--10-10-10-10-|
|-0-0-0-r-0--0-0-0-0--3-3-3-0-10-10-10-r-10--10-10-10-10--10-10-10-10-|

|---------------------------------------------------------------|
|---------------------------------------------------------------|
|---------------------------------------------------------------|
|-10-10-10--r--12-12-12--r--7-7-7--10-10-10--10-10-10--10-10-10-|
|--8--8--8--r--10-10-10--r--5-5-5---8--8--8---8--8--8---8--8--8-|
|--8--8--8--r--10-10-10--r--5-5-5---8--8--8---8--8--8---8--8--8-|

Solo: (Distortion)
|---------------------------------------------------------------------|
|---------------------------------------------------------------------|
|---------10-9h10-9\5-10-9h10-12-12-14-14-15--15-15/17\12-15-15-15\14-|
|-0-000-0-------------------------------------------------------------|
|-0-000-0-------------------------------------------------------------|
|-0-000-0-------------------------------------------------------------|

|-----------------------------------------------------------------|
|-----------------------------------------------------------------|
|-----------------------------------------------------------------|
|-3-3-3-3-3-3-3-3-3-3-3-3-3-3-3-3-7-7-7-7-7-7-7-7-7-7-7-7-7-7-7-7-|
|-3-3-3-3-3-3-3-3-3-3-3-3-3-3-3-3-7-7-7-7-7-7-7-7-7-7-7-7-7-7-7-7-|
|-3-3-3-3-3-3-3-3-3-3-3-3-3-3-3-3-7-7-7-7-7-7-7-7-7-7-7-7-7-7-7-7-|

|-------------------------------------------------|
|-------------------------------------------------|
|-------------------------------------------------|
|-3-3-3-3-3-3-3-3-3-3-3-3-3-3-3-3-7-7-7-7-7-7-7-0-|
|-3-3-3-3-3-3-3-3-3-3-3-3-3-3-3-3-7-7-7-7-7-7-7-0-|
|-3-3-3-3-3-3-3-3-3-3-3-3-3-3-3-3-7-7-7-7-7-7-7-0-|

Outro:
|---------------------------------------------------------------------|
|---------------------------------------------------------------------|
|---------------------------------------------------------------------|
|-0-0-0-r-0--0-0-0-0--3-3-3-0-10-10-10-r-10--10-10-10-10--10-10-10-10-|
|-0-0-0-r-0--0-0-0-0--3-3-3-0-10-10-10-r-10--10-10-10-10--10-10-10-10-|
|-0-0-0-r-0--0-0-0-0--3-3-3-0-10-10-10-r-10--10-10-10-10--10-10-10-10-|

Questions? Comments? Complaints?
E-mail me at: Redguitar@aol.com
-=-----X-Red-----=-
Comments