Mudvayne - World So Cold Chords & Tabs

 

World So Cold Chords & Tabs

Mudvayne Chords & Tabs

Version: 1 Type: Tab 0 ratings
1 star 2 stars 3 stars 4 stars 5 stars
comments

World So Cold Tab

   
Song:World So Cold
By MuDvAyNe                           /|
Album: The end of all things to come /_|_
Tabbed by: Sam Ghantous
Tuning: From low to high (C,G,C,F,A,D)
Palm Mute: pm..
Mute: x
Slide:/

Verse
|----------------------------------------------------------------------
|----------------------------------------------------------------------
|----------------------------------------------------------------------
|---10-10-10-10-10-10-10-10-10-10-10-9-9-9-9-7-9-7-7-7-7-7-7-7-7-7-7-9-
|----0--0--0--0--0--0--0--0--0--0--0-0-0-0-0-0-0-0-0-0-0-0-0-0-0-0-0-0-
|----------------------------------------------------------------------

----------------------------------------------------------------------
----------------------------------------------------------------------
----------------------------------------------------------------------
9-9-10-0--5-5-5-5-5-5-5-5-5-5-5-5-5-5-5-5-5-5-5-5-5-5-5-5-5-5-5/7-7-7-
0-0--0-0--x-x-x-x-x-x-x-x-x-x-x-x-x-x-x-x-x-x-x-x-x-x-x-x-x-x-x---x-x-
-------0--3-3-3-3-3-3-3-3-3-3-3-3-3-3-3-0-3-3-3-3-3-3-3-3-3-3-3/5-5-5- 

----||
----||
----||
----||
----||
7-7-||
5-5-||  

Chorus
|--------------------------------------------------------
|--------------------------------------------------------
|----------------5-5-5-5-4-2-----------------5-5-5-5-4-2-
|-3-3--3-3--3-3--x—x-x-x-x-x--3-3--3-3--3-3--x—x-x-x-x-x-
|-3-3--3-3--3-3--3-3-3-3-2-0--3-3--3-3--3-3--3-3-3-3-2-0-
|-3-3--3-3--3-3---------------3-3--3-3--3-3--------------

-------------------------------------------------||
-------------------------------------------------||
-------------------7---------------------12-10-10||
-------------------x----------------------x--x--x||
--0----2-3-2-0-0---5----0----2-3-2-0-0---10-10-10||
--0----2-3-2-0-0--------0----2-3-2-0-0-----------||

|-----------------------------------------------------------------
|------------------------------------------------------------------
|---------------------5-5-5----------------------------------------
|-0-0-0--0--0-0-0-0-0-3-3-3-0--10-10-10--10--10-10-10-10--10----10-
|-0-0-0--0--0-0-0-0-0-3-3-3-0--10-10-10--10--10-10-10-10--10----10-
|-0-0-0--0--0-0-0-0-0-3-3-3-0--10-10-10--10--10-10-10-10--10----10-
[ Tab from: http://www.guitartabs.cc/tabs/m/mudvayne/world_so_cold_tab.html ]
---------------------------------------------------||
---------------------------------------------------||
-----------12-12-12--------------------------------||
-10-10-10--12-12-12----12-12-12---10-10-10---7-7-7-||
--8--8--8--10-10-10—---10-10-10----8--8--8---7-7-7-||
--8--8--8--10-10-10---—10-10-10----8--8--8---7-7-7-||

Solo (Guitar 1)
------------------------------------------------------------------------||
------------------------------------------------------------------------||
------------------------------------------------------------------------||
-0---15--10--10-10-10--10--10-8--8-8--10--10-10--5-5-8--8-8--7--7--7-7-||
-0---15--10--10-10-10--10--10-8--8-8--10--10-10--5-5-8--8-8--7--7--7-7-||
-0---15--10--10-10-10--10--10-8--8-8--10--10-10--5-5-8--8-8--7--7--7-7-||

Solo(Guitar 2)
|--------------------------------------------------------------
|--------------------------------------------------------------
|----7---10/9-10/9-(10/9)-5-----9-9/10--10/12--12----15--15-15/
|----x----x-x--x-x—(-x-x)-x-----x-x------x------x-----x---x-—x/
|----5----8/7—-8/7-(-8/7)-3-----7-7/-8---8/10--10----13--13-13/
|--------------------------------------------------------------

------------------------------------------||
------------------------------------------||
-17---17-17-17--12--12----15--15--14--14-||
--x----x-—x--x----x---x-----x---x---x---x-||
-15---15-15-15--10--10----13--13--12--12-||
------------------------------------------||

Bridge prt.2/outro
|----------------------------------------------------------------------
|-6-6-6-6-6-6-6-6-6-6-6-6-6-6—6-6-10-10-10-10-10-10-10-10-10-10-10-10--
|-5-5-5-5-5—5-5-5-5-5-5—5—5-5-5-5--9--9--9--9--9--9--9--9--9--9--9--9--
|-3-3-3-3—3-3-3-3-3-3-3-3-3-3-3-3--7--7--7--7--7--7--7--7--7--7--7--7--
|-3-3-3-3-3-3-3-3-3-3-3-3-3-3-3-3--7--7--7--7--7--7--7--7--7--7--7--7--
|-3-3-3-3-3-3-3-3-3-3-3-3-3-3-3-3--7--7--7--7--7--7--7--7--7--7--7--7--

-----------
10-10-10-10-
-9--9--9--9-
-7--7--7--7-
-7--7--7--7-
-7--7--7--7-

---------------------------------------------------------------------||
-6-6-6-6-6-6-6-6-6-6-6-6-6-6-6-6-----------10-10-10-10-10-10-10-10--3||
-5-5-5-5-5—5-5-5-5-5-5-5-5-5-5-5------------9--9--9--9--9--9--9--9--2||
-3-3-3-3-3-3-3-3-3-3-3-3-3-3-3-3------------7--7--7--7--7--7--7--7--0||
-3-3-3-3-3-3-3-3-3-3-3-3-3-3-3-3-9-10-9-10--7--7--7--7--7--7--7--7--0||
-3-3-3-3-3-3-3-3-3-3-3-3-3-3-3-3-9-10-9-10--7--7--7--7--7--7--7--7--0||
pm                                . .. . ..

verse/intro 4x
chorus 2x
verse/intro5x I think
chorus3x
bridge prt.1 4x
solo 1x
bridge prt2/outro keep on repeating fadeout

n e comments, dissess,praises, or requests u can email me at 
virus_dude12@hotmail.com
Comments