Mudvayne - World So Cold Complete Chords & Tabs

 

World So Cold Complete Chords & Tabs

Mudvayne Chords & Tabs

Version: 1 Type: Tab 3 ratings
1 star 2 stars 3 stars 4 stars 5 stars
comments

World So Cold Complete Tab

   
Artist:    Mudvayne (Chad, Ryan, Greg, and Matt)
Album:     The End of All Things to Come
Song:      World So Cold (Track-6)

Tuning: Low to High
       (C,G,C,F,A,d)

This is how I think that this song really goes!

VERSE:
|----------------------------------------------------------------------|
|----------------------------------------------------------------------|
|----------------------------------------------------------------------|
|-10-10-10-10-10-10-10-10-10-10-9-9-9-9-7-9-7-7-7-7-7-7-7-7-7-7-7-9-9-9|
|--0--0--0--0--0--0--0--0--0--0-0-0-0-0-0-0-0-0-0-0-0-0-0-0-0-0-0-0-0-0|
|----------------------------------------------------------------------|

|------------------------------------------------------------------------|
|------------------------------------------------------------------------|
|------------------------------------------------------------------------|
|-/10-10--5-5-5-5-5-5-5-5-5-5-5-5-5-5-5-5-5-5-5-5-5-5-5-5-5-5-5-5/7-7-7-7|
|--0--0-0-3-3-3-3-3-3-3-3-3-3-3-3-3-3-3-0-3-3-3-3-3-3-3-3-3-3-3-3/5-5-5-5|
|-------0-3-3-3-3-3-3-3-3-3-3-3-3-3-3-3-0-2-2-2-2-2-2-2-2-2-2-2-2/5-5-5-5|

CHORUS:
|------------------------------------------------------------|
|------------------------------------------------------------|
|----------------5-5-5-54-4-4-----------------5-5-5-54-4-4-|
|-3-3--3-3--3-3--X-X-X-X-X-X-x--3-3--3-3--3-3--X-X-X-X-X-X-x-|
|-3-3--3-3--3-3--3-3-3-32-2-2--3-3--3-3--3-3--3-3-3-32-2-2-|
|-3-3--3-3--3-3-----------------3-3--3-3--3-3----------------|

|-----------------------------------------------------|
|-----------------------------------------------------|
|-------------------7-7-7--------------------12-12-12-|
|-------------------X-X-X---------------------X--X--X-|
|-0--0-2-3-2-0--/6--5-5-5----0-2-3-2-0---/6--10-10-10-|
|-0--0-2-3-2-0--/6-----------0-2-3-2-0---/6-----------|

|--------------------------------------|
|--------------------------------------|
|-------------------7-7-7-/12-12-12-12-|
|-------------------x-x-x---x--x--x--x-|
|-0--0-2-3-2-0--/6--5-5-5-/10-10-10-10-|
|-0--0-2-3-2-0--/6---------------------|

Play this only once after the first chorus, then go back to the verse
|----------------------------------------------------------------------|
|----------------------------------------------------------------------|
|----------------------------------------------------------------------|
|-10-10-10-10-10-10-10-10-10-10-9-9-9-9-7-9-7-7-7-7-7-7-7-7-7-7-7-9-9-9|
|--0--0--0--0--0--0--0--0--0--0-0-0-0-0-0-0-0-0-0-0-0-0-0-0-0-0-0-0-0-0|
|----------------------------------------------------------------------|

|---------|
|---------|
|-------0-|
|/10-10-5-|
|--0--0-0-|
|---------|
[ Tab from: http://www.guitartabs.cc/tabs/m/mudvayne/world_so_cold_complete_tab.html ]
Keyboards arranged for guitar: (second guitar plays this during second verse)
|-------------------------------------------------------------|
|---------8-------------8-------------8------------8----------|
|-------------------------------------------------------------|
|--7--10--------7--7-10--------7--10-------7--7-10------------|
|-------------------------------------------------------------|
|-------------------------------------------------------------|


Play this after the second chorus 
|------------------------------------------------------------|
|------------------------------------------------------------|
|----------------5-5-5-54-4-4-----------------5-5-5-54-4-4-|
|-3-3--3-3--3-3--X-X-X-X-X-X-x--3-3--3-3--3-3--X-X-X-X-X-X-x-|
|-3-3--3-3--3-3--3-3-3-32-2-2--3-3--3-3--3-3--3-3-3-32-2-2-|
|-3-3--3-3--3-3-----------------3-3--3-3--3-3----------------|

INTERLUDE:
|-----------------------------------------------------------------|
|-----------------------------------------------------------------|
|-------------------/5-5-5----------------------------------------|
|-0-0-0--0--0-0-0-0-/3-3-3-0-10-10-10--10--10-10-10-10--10-10-10--|
|-0-0-0--0--0-0-0-0-/3-3-3-0-10-10-10--10--10-10-10-10--10-10-10--|
|-0-0-0--0--0-0-0-0-/3-3-3-0-10-10-10--10--10-10-10-10--10-10-10--|

|---------------------------------------------------------|
|--------------------------------------10-10-----10-10----|
|-----------12-12-12--------------------8--8-10---8--8-10-|
|-10-10-10--12-12-12--7-7-7--10-10-10---8--8--8---8--8--8-|
|--8--8--8--10-10-10--5-5-5---8--8--8---8--8--8---8--8--8-|
|--8--8--8--10-10-10--5-5-5---8--8--8---8--8--8---8--8--8-|

Coda:
|--------------------------------------------------------------------|
|----3---------------------------------------11-1111-/13-1313--8-8-8-|
|----2------------5-5--5--9-9-10-10-12-12-12-10-1010-/12-1212--7-7-7-|
|----0--3-2-3-2-0-5-5--5--X-X--X--X--X--X--X--8--8-8-/10-1010--5-5-5-|
|-0--0------------3-3--3--7-7--8--8-10-10-10--8--8-8-/10-1010--5-5-5-|
|-0-------------------------------------------8--8-8-/10-1010--5-5-5-|


|----------------------|
|-11-1111--10-1010-10/-|
|-10-1010---9--9-9--9/-|
|--8--8-8---7--7-7--7/-|
|--8--8-8---7--7-7--7/-|
|--8--8-8---7--7-7--7/-|

Bridge:
|---------------------------------------------------|
|-66666666666666661010101010101010101012121212101010|
|-5555555555555555-9-9-9-9-9-9-9-9-9-911111111-9-9-9|
|-3333333333333333-7-7-7-7-7-7-7-7-7-7-9-9-9-9-7-7-7|
|-3333333333333333-7-7-7-7-7-7-7-7-7-7-9-9-9-9-7-7-7|
|-3333333333333333-7-7-7-7-7-7-7-7-7-7-9-9-9-9-7-7-7|

|------------------------------------------------|
|-6666666666666666-----------1010101010101010--3-|
|-5555555555555555------------9-9-9-9-9-9-9-9--2-|
|-3333333333333333------------7-7-7-7-7-7-7-7--0-|
|-3333333333333333-9-10-9-10--7-7-7-7-7-7-7-7--0-|
|-3333333333333333-9-10-9-10--7-7-7-7-7-7-7-7--0-|
                pm . .. . ..

OUTRO:
|----------------------------------------------------|
|----------------------------------------------------|
|----------------------------------------------------|
|-3-3-3--3--3-3-3-3--3-3-3--7-7-7--7--7-7-7-7--7-7-7-|
|-3-3-3--3--3-3-3-3--3-3-3--7-7-7--7--7-7-7-7--7-7-7-|
|-3-3-3--3--3-3-3-3--3-3-3--7-7-7--7--7-7-7-7--7-7-7-|

|------------------------------------------|
|------------------------------------------|
|------------------------------------------|
|-3-3-3--3--3-3-3-3--3-3-3--7-7-7--7-7-0-0-|
|-3-3-3--3--3-3-3-3--3-3-3--7-7-7--7-7-0-0-|
|-3-3-3--3--3-3-3-3--3-3-3--7-7-7--7-7-0-0-|

That's it, enjoy...MUDVAYNE KICKS ASS!
E-mail with any comments or questions!
     -Rj6586@hotmail.com
Comments