Mudvayne - Under My Skin Chords & Tabs

 

Under My Skin Chords & Tabs

Mudvayne Chords & Tabs

Version: 1 Type: Tab 0 ratings
1 star 2 stars 3 stars 4 stars 5 stars
comments

Under My Skin Tab

   
Song: Under My Skin
Artist: Mudvayne
Album: L.D. 50

Tuning: Drop D, Down 1 1/2 Steps (B,F#,B,E,G#,C#)

BRIDGE:
|-----------------------|
|-----------------------|
|-----------------------|
|-7h8-0-0-3h4-0-0-5h6-0-|
|-7h8-0-0-3h4-0-0-5h6-0-|
|-7h8-0-0-3h4-0-0-5h6-0-|

FILL:
|---------------|
|---------------|
|---------------|
|-7h8-0-0-3h4-0-|
|-7h8-0-0-3h4-0-|
|-7h8-0-0-3h4-0-|

VERSE:
|------------|
|-6--6--9--9-|
|-4--4--7--7-|
|------------|
|------------|
|------------|

CHORUS:
|---------------------|
|---------------------|
|---------------------|
|-2h3-0-2h3-0-2h3-2h3-|
|-2h3-0-2h3-0-2h3-2h3-|
|-2h3-0-2h3-0-2h3-2h3-|

INTERLUDE:
|-------------------------------|
|-------------------------------|
|-------------------------------|
|-------------------------------|
|-------------------------------|
|-0h3h4-0h4h5-0h6h7-0h3h4-0h4h5-|
[ Tab from: http://www.guitartabs.cc/tabs/m/mudvayne/under_my_skin_tab.html ]
FILL 2:
|------------|
|------------|
|------------|
|-0-0-0-0--0-|
|-0-0-0-0--0-|
|-0-0-0-0--0-|

INTERLUDE 2:
|-------------------------------|
|-------------------------------|
|-------------------------------|
|-------------------------------|
|-0h3h4-0h4h5-0h6h7-0h3h4-0h4h5-|
|-0h3h4-0h4h5-0h6h7-0h3h4-0h4h5-|

FILL 3:
|--------------|
|--------------|
|--------------|
|-0-0--0--0--0-|
|-0-0--0--0--0-|
|-0-0--0--0--0-|

INTERLUDE 3: (w/ effect)
|----------------------------------------------15---|
|-15-15-15-15-15-15-16-16-15-15-15-15-15-15-15---13-|
|---------------------------------------------------|
|---------------------------------------------------|
|---------------------------------------------------|
|---------------------------------------------------|

INTERLUDE 4:
|-------------------------|
|-------------------------|
|----------------------|
|-------5\4-------5\4-----|
|-0h2h3-3\2-0h2h3-3\2-----|
|-0h2h3-----0h2h3---------|

Comments