Mudvayne - Tv Radio Chords & Tabs

 

Tv Radio Chords & Tabs

Mudvayne Chords & Tabs

Version: 1 Type: Bass Tab 0 ratings
1 star 2 stars 3 stars 4 stars 5 stars
comments

Tv Radio Bass Tab

   
song:tv radio
Band:mudvayne
Tabbed by:GunsN'Roses101(josh m.)
tunning:drop d(C G C F)
album:lost and found

verse:(0:04)
|------------------------------------------------|
|------------------------------------------------|
|6-6-6-6-6-6-6-6-6-6-6-6-6-6-6-6-6-6-6-6-6-6-6-6-|
|------------------------------------------------|

|------------------------------------------------------|
|------------------------------------------------------|
|------------------------------------------------------|
|8-8-7-7-10-10-8-8-7-7-10-10-8-8-7-7-10-10-8-8-7-7-5-5-|

|------------------------------------------------|
|--------7---------------15-------------7--------|
|5-6-6-6---6-5-6-6-6-6-6----6-5-6-6-6-6----6--0--|
|------------------------------------------------|

|------------------------------------------------------|
|------------------------------------------------------|
|------------------------------------------------------|
|8-8-7-7-10-10-8-8-7-7-10-10-8-8-7-7-10-10-8-8-7-7-5-5-|

|------------------------------------------------|
|--------7---------------15-------------7--------|
|5-6-6-6---6-5-6-6-6-6-6----6-5-6-6-6-6----6--0--|
|------------------------------------------------|

|------------------------------------------------------|
|------------------------------------------------------|
|------------------------------------------------------|
|8-8-7-7-10-10-8-8-7-7-10-10-8-8-7-7-10-10-8-8-7-7-5-5-|

|--------------------------------------------------|
|--------------------------------------------------|
|5-6-6-6-8-6-5-6-6-6-6-6--8/10--8--6-6-6--8--6--0--|
|--------------------------------------------------|

|------------------------------------------------------|
|------------------------------------------------------|
|------------------------------------------------------|
|8-8-7-7-10-10-8-8-7-7-10-10-8-8-7-7-10-10-8-8-7-7-3-3-|

chorus:(0:38)
|----------------------------------------------------------------|
|----------------------------------------------------------------|
|5-5--5----------------------------------------------------------|
|-------0-0--0-8-7-0-8-7-0-5-7-10-10--10-0-0--0-8-7-0-8-10-0-5-7-|

|-------------------------------------------------------------------------|
|-------------------------------------------------------------------------|
|--------------------------------13-14-14-14-13--13-13-8------------------|
|8-8-8-8-13-8-7-8-8-8-8-8-10-8-8--------------------------3-2-0-5-7-0-3-5-|

verse 2:(0:59)
|-----------------------------------------------|
|-----------------------------------------------|
|-----------------------------------------------|
|1-1-1-1-1-1-1-1-1-1--1-1-1-1-1--1--1-1-1-1-1-1-|
[ Tab from: http://www.guitartabs.cc/tabs/m/mudvayne/tv_radio_btab.html ]
|------------------------------------------------------|
|------------------------------------------------------|
|------------------------------------------------------|
|8-8-7-7-10-10-8-8-7-7-10-10-8-8-7-7-10-10-8-8-7-7-5-5-|

|----------------------------------8------------|
|--------8-----------------------------8--------|
|5-6-6-6---6-5-6-6-6-6-6-8-6-5-6-6---6------6/0-|
|-----------------------------------------------|

|------------------------------------------------------|
|------------------------------------------------------|
|------------------------------------------------------|
|8-8-7-7-10-10-8-8-7-7-10-10-8-8-7-7-10-10-8-8-7-7-5-5-|

|----------------------------------------------------|
|--------8---8-10-10-10-8-8--7-----------------8-----|
|5-6-6-6---6--------------------8--0--5/6-6-6-----6\-|
|----------------------------------------------------|

|------------------------------------------------------|
|------------------------------------------------------|
|------------------------------------------------------|
|8-8-7-7-10-10-8-8-7-7-10-10-8-8-7-7-10-10-8-8-7-7-5-5-|

|--------------------------------------------------|
|--------------------------------------------------|
|--------------------------------------------------|
|0-1-1-1-3-1-0-1-1-1-1-1--3--5--3--1-1-1-1-6-1-1-1-|

|------------------------------------------------------|
|------------------------------------------------------|
|------------------------------------------------------|
|8-8-7-7-10-10-8-8-7-7-10-10-8-8-7-7-10-10-8-8-7-7-3-3-|

chorus:(1:32)

bridge:(1:55)
|-|-----------------------------------|
|-|-----------------------------------|
|-|--------1-1111-1111-------1/3--3-3-|
|5|0111-11-------------0111-1---------|

|----------------------------------------------|
|----------------------------------------------|
|------0-1--1113/5-5056-------0-1--13/555-3311-|
|0111-1-----------------0111-1-----------------|(all that x2)

breakdown:(2:15)
|------------------------------------------------------------------------|
|------------------------------------------------------------------------|
|------------------------------------------------------------------------|
|8-8-7-7-10-10-8-8-7-7-10-10-8-8-7-7-10-10-8-8-7-7-5-5-10-10-8-8-7-7-3-3-|

chorus:(2:29)

outro:(2:51)
|-------------------------------------------------------------------|
|-------------------------------------------------------------------|
|-------------------------------------------------------------------|
|0-0-0-0-0-0-0-0-3-3-3-3-8-7--5-7-7-7-7-7-7-7-7-8-8-8-8-10-10-10-10-|

|------------------------------------------------------------------|
|------------------------------------------------------------------|
|------------------------------------------------------------------|
|-0-0-0-0-0-0-0-0-3-3-3-3-8-7--5-7-7-7-7-7-7-7-7-8-8-8-8-5-5-5-5-0-|


well i guess thats it this is my first ttab so i dont think its exactly correct but have at it.heathins.
Comments