Mudvayne - Trapped In The Wake Of A Dream Chords & Tabs

 

Trapped In The Wake Of A Dream Chords & Tabs

Mudvayne Chords & Tabs

Version: 2 Type: Tab 0 ratings
1 star 2 stars 3 stars 4 stars 5 stars
comments

Trapped In The Wake Of A Dream Tab

   
Mudvayne-Trapped in the wake of a dream
tabbed by Tim Dowland (Revolt now!!! b4 its to late!!)
tune (CGCFAD)

--------------------------------------------------
n=finger mute firt fret (dont push down just mute)

hint: to learn faster count like this really fast
123--12-12-1234-12345-12-12-123-12

and the other part (A string 7th frt.)
123-12-12-1234-1231234---123-12-12-1234-1231234
--------------------------------------------------
(Revolt now!!! b4 its to late!!)


intro...
D-----------------------------------
A-----------------------------------
F-----------------------------------
C-n11-11-11-1111-11111-11-11-111-11-
G-n11-11-11-1111-11111-11-11-111-11-
C-n11-11-11-1111-11111-11-11-111-11-
PM... .. .. .... ..... .. .. ... ..  

pre-verse...=n+pm
D----------------------------------------------------------
A----------------------------------------------------------
F----------------------------------------------------------
C-n00--n00--n00--n00--n00-n00--n00--n00--n00--n00--n00-n00-
G-n00--n00--n00--n00--n00-n00--n00--n00--n00--n00--n00-n00-
C-n00--n00--n00--n00--n00-n00--n00--n00--n00--n00--n00-n00-
pm...  ...  ...  ...  ... ...  ...  ...  ...  ...  ... ...

D-----------------------
A-----7-----------------
F-------6---------------
C-----------------------
G-----------------------
C-0---------------------

D--------------------------------------------------
A--------------------------------------------------
F-777-77-77-7777-7777777---777-77-77-7777-7777777--
C--------------------------------------------------
G--------------------------------------------------
C--------------------------------------------------
pm... .. .. .... .......   ... .. .. .... .......

D-----------------------
A-----7-----------------
F-------6---------------
C-----------------------
G-----------------------
C-0---------------------


D-----------------------------------
A----------------------------------------------------------------------
F----------------33333-------333---------------------------------------
C-100-10-10-1010-xxxxx-10-10-xxx-00--000--000--000--000--000--000--000-
G-100-10-10-1010-11111-10-10-111-00--000--000--000--000--000--000--000-
C-100-10-10-1010-11111-10-10-111-00--000--000--000--000--000--000--000-
PM... .. .. ....    .. .. ..     ..  ...  ...  ...  ...  ...  ...  ...


lude...(trippy)
D----------------------------------
A----------------------------------
F-87575-87585-8-757-58757-555------
C----------------------------------
G----------------------------------
C----------------------------------
pm.................................


[ Tab from: http://www.guitartabs.cc/tabs/m/mudvayne/trapped_in_the_wake_of_a_dream_tab_ver_2.html ]
im not gonna put the slides in but hit each note then slide to the next
D------------------------------------------------------
A------------------------------------------------------
F------------------------------------------------------
C-6-5-3-5-6-3-2-1-2-3-2-1p0--6-5-3-5-6-3-2-1-2-3-2-1p0-
G-6-5-3-5-6-3-2-1-2-3-2-1p0--6-5-3-5-6-3-2-1-2-3-2-1p0-
C-6-5-3-5-6-3-2-1-2-3-2-1p0--6-5-3-5-6-3-2-1-2-3-2-1p0-


D---------------------------------------------------------------------------
A---------------------------------------------------------------------------
F---------------------------------------------------------------------------
C-66-55-33-55-66-33-22-11-22-33-22-11p00-66-55-44-55-44-33-22-44-33-22-11p00
G-66-55-33-55-66-33-22-11-22-33-22-11p00-66-55-44-55-44-33-22-44-33-22-11p00
C-66-55-33-55-66-33-22-11-22-33-22-11p00-66-55-44-55-44-33-22-44-33-22-11p00
pm..........................................................................



D---------------------------------------------------------------------
A-33--3--3--3-3--333---3--3--333-----33--3--3--3-3--333---3--3--333---
F-11--1--1--1-1--111---1--1--111-----11--1--1--1-1--111---1--1--111---
C-Xx0-x0-x0-x0x0-xxx00-x0-x0-xxx-00--Xx0-x0-x0-x0x0-xxx00-x0-x0-xxx-00
G-110-10-10-1010-11100-10-10-111-00--110-10-10-1010-11100-10-10-111-00
C-110-10-10-1010-11100-10-10-111-00--110-10-10-1010-11100-10-10-111-00
pm...............................
^middle finger on f str. pnky. on the a str.^


D---------------------------------------------------------------------
A---------------------------------------------------------------------
F---------------------------------------------------------------------
C-XXX-XX-XX-XXXX-XXXXX-XX-XX-XXX-XX--xxx-xx-xx-xxxx-xxxxx-xx-xx-xxx-xx
G-XXX-XX-XX-XXXX-XXXXX-XX-XX-XXX-XX--xxx-xx-xx-xxxx-xxxxx-xx-xx-xxx-xx
c-xxx-xx-xx-xxxx-xxxxx-xx-xx-xxx-xx--xxx-xx-xx-xxxx-xxxxx-xx-xx-xxx-xx



D----------------------------------------------------------------------
A----------------------------------------------------------------------
F----------------33333-------333---------------------------------------
C-100-10-10-1010-xxxxx-10-10-xxx-00--000--000--000--000--000--000--000-
G-100-10-10-1010-11111-10-10-111-00--000--000--000--000--000--000--000-
C-100-10-10-1010-11111-10-10-111-00--000--000--000--000--000--000--000-
PM... .. .. ....       .. ..     ..  ...  ...  ...  ...  ...  ...  ...

exit...
D-----------------------------------
A-----------------------------------
F-----------------------------------
C-n11-11-11-1111-11111-11-11-111-11-
G-n11-11-11-1111-11111-11-11-111-11-
C-n11-11-11-1111-11111-11-11-111-11-
PM... .. .. .... ..... .. .. ... ..
Comments