Mudvayne - Skrying Chords & Tabs

 

Skrying Chords & Tabs

Mudvayne Chords & Tabs

Version: 1 Type: Bass Tab

Skrying Bass Tab

Band- Mudvayne
Song- Skrying

Verse:
   
|--------------------------------------|
|--------------------------------------|
|--------------------------------------|
|-6--3--5-----6--5--3-----8--8--10-12\-|


Chorus:
   
|------------------------------------------------------------|
|--------------9-------------9-------------9-----------------|
|-------------7-------------7-------------7------------------|
|-777?-777---7--777?-777---7--777?-777---7-777?-777---1\-/77-|


Verse:

Chorus: 

Verse:

Chorus:

Solo: played twice through.
  
|-----------------------------------------------|
|-----------------------------------------------|
|17-15-17-15-17-18-17-15--12-13-----------------|
|-------------------------------12-13-13-12-13--|

Solo continued: when guitar comes in

|-------------------------------------------|
|----------------------------------------15-|
|17-17-15-17-18-17-15--12-13----------------|
|----------------------------12-13-13-12----|


Interlude:
[ Tab from: http://www.guitartabs.cc/tabs/m/mudvayne/skrying_btab.html ]
|---------------------------------------------------------------|
|---------------------------------------------------------------|
|5-3-5-3-5-6-5-3--0-1-------------5-5-3-5-6-5-3--0-1------------|
|---------------------0-1-1-0-1----------------------0-1-1-0-1--|
                  
 
Interlude part 2:

|----------------------------------------------|
|----------------------------------------------|
|2--------2-------------2--------2-------------|
|--1-0-1----1-0-1--X-X----1-0-1----1-0-1--X-3--|

 
Verse:
                                
Outro: fading out
   
|------------------------------------|
|------------------------------------|
|------------------------------------|
|6--5--3-----6--5--3-----6--5--3-----|


Outro 2 when the song fades back in.
|------------------------------------------------------|
|------------------------------------------------------|
|--------------------------------------------------1//-|
|X--3--1--X--1--0--3--X--3--0--1--1--X--1--3--0--------|
 S  S  S  S  S  S  S  S  S  S  S  S  S  S  S  S